Sound will begin in 5 seconds

Drink it fast

Chords
01234567891011121314151617181920212223
E
B
G
D
A
E
B
0 1 2 3 4 5 6 7 8 9 10 11 12 13 14 15 16 17 18 19 20 21 22 23
Song Science #1: How Pros Use 6 Chords to Write Hit Songs
(/) Slide Up  (\) Slide Down  (h) Hammer On  (p) Pull Off  (b) Bend (r) Release (v) Vibrato

Stave 1:

E|--5-----8-----6-----9---
B|--6-----9-----6-----9---
G|--5-----8-----7-----10--
D|------------------------
A|------------------------
E|------------------------

Stave 2:

E|-----------------------
B|-----------------------
G|--------------3-----6--
D|--3-----6-----3-----6--
A|--3-----6-----1-----4--
E|--1-----4--------------

Stave 3:

E|--|--9------8------6-----4--|--9------8------6--5--4--
B|--|--9------10-----6-----4--|--9------10-----6--5--4--
G|--|--10-----10-----7-----5--|--10-----10-----7--6--5--
D|--|-------------------------|-------------------------
A|--|-------------------------|-------------------------
E|--|-------------------------|-------------------------

Stave 4:

E|--1--------3-----6--
B|--1--------5-----8--
G|--2--------5-----8--
D|--3--------5-----8--
A|--3--------3-----6--
E|--1--------3-----6--

http://www.guitartabcreator.com
Guitar Tab Creator is intended to store guitar tab created through the tool. It currently does not support in-line text editing. Any text you place in here will be lost. If you need to comment on your tab, please use the "Tab Notes" section located below.