Sound will begin in 5 seconds

Come on Eileen

Chords
01234567891011121314151617181920212223
E
B
G
D
A
E
B
0 1 2 3 4 5 6 7 8 9 10 11 12 13 14 15 16 17 18 19 20 21 22 23
Song Science #1: How Pros Use 6 Chords to Write Hit Songs
(/) Slide Up  (\) Slide Down  (h) Hammer On  (p) Pull Off  (b) Bend (r) Release (v) Vibrato

Stave 1:

E|-----------------------------|--
B|-----------------------------|--
G|--5-----------------5--------|--
D|--5-----2-----3-----5--5-----|--
A|--3-----2-----3-----3--5-----|--
E|--------0-----1--------3-----|--

Stave 2:

E|--8------7-----5-----8---7-----|--|--8------------------------
B|--8------8-----6-----8---8-----|--|--8------------------------
G|--9------9-----5-----9---7-----|--|--9------------------5-----
D|--10-----9-----------10--------|--|--10-----2-----3-----5--5--
A|-------------------------------|--|---------2-----3-----3--5--
E|-------------------------------|--|---------0-----1--------3--

Stave 3:

E|--5-----5-----7-----3--5-----|--
B|--7-----5-----8-----3--5-----|--
G|--7-----6-----9-----4--6-----|--
D|--------7-----9-----5--7-----|--
A|-----------------------------|--
E|-----------------------------|--

Stave 4:

E|--5-----2-----3-----5--5-----|--------------------------|--
B|--7-----2-----3-----7--5-----|--------------------------|--
G|--7-----2-----4-----7--6-----|--7-----------------------|--
D|--------4-----5--------7-----|--7-----7-----5-----7-----|--
A|-----------------------------|--5-----7-----5-----7-----|--
E|-----------------------------|--------5-----3-----5-----|--

http://www.guitartabcreator.com
Guitar Tab Creator is intended to store guitar tab created through the tool. It currently does not support in-line text editing. Any text you place in here will be lost. If you need to comment on your tab, please use the "Tab Notes" section located below.