Sound will begin in 5 seconds

Wake Up - Guitar Tab

01234567891011121314151617181920212223
E
B
G
D
A
E
B
0 1 2 3 4 5 6 7 8 9 10 11 12 13 14 15 16 17 18 19 20 21 22 23
Song Science #1: How Pros Use 6 Chords to Write Hit Songs
(/) Slide Up  (\) Slide Down  (h) Hammer On  (p) Pull Off  (b) Bend (r) Release (v) Vibrato

Stave 1:

E|--------------3--2-----------5--3-----7--5--3-----2h3--2h3/7--7--
B|--5-----3--5-----------3--5--------------------5-----------------
G|-----------------------------------------------------------------
D|-----------------------------------------------------------------
A|-----------------------------------------------------------------
E|-----------------------------------------------------------------

Stave 2:

E|--------3h5p3--5b7b5--3--5--7-----5-----3-----2----------3h5--5b7b5--3-----2--2--3--2/7--
B|--5--5-------------------------------------------4--3h5-----------------5----------------
G|-------------------------------9-----7-----5---------------------------------------------
D|-----------------------------------------------------------------------------------------
A|-----------------------------------------------------------------------------------------
E|-----------------------------------------------------------------------------------------

Stave 3:

E|--------3h5p3--5b7b5--3--5--7-----5-----3-----2----------3h5--5b7b5--3-----2--2--2h3p2-----
B|--5--5-------------------------------------------4--3h5-----------------5---------------5--
G|-------------------------------9-----7-----5-----------------------------------------------
D|-------------------------------------------------------------------------------------------
A|-------------------------------------------------------------------------------------------
E|-------------------------------------------------------------------------------------------

Stave 4:

E|-----------------------------------------------------------------------------------------------
B|--------8h10p8--10b12b10--8-----7--7--7h8p7--7--7--7h8p7-----------8--10b12b10--8-----8-----8--
G|--9--9-----------------------9----------------------------9--7--9------------------9-----9-----
D|-----------------------------------------------------------------------------------------------
A|-----------------------------------------------------------------------------------------------
E|-----------------------------------------------------------------------------------------------

Stave 5:

E|--------------------------------------------------------------------------------10--10--10--
B|--7--7--7--7--7--7--10--10--10--10--10--10--12--12--12--10--10--10--12--12--12--------------
G|--------------------------------------------------------------------------------------------
D|--------------------------------------------------------------------------------------------
A|--------------------------------------------------------------------------------------------
E|--------------------------------------------------------------------------------------------

Stave 6:

E|--12--12--12--12--10-------------------------------------------------------------------
B|----------------------12--10--8-----8--10--10b12b10--8-----8-----10b12b10--8-----8-----
G|---------------------------------9----------------------9-----9---------------9-----7--
D|---------------------------------------------------------------------------------------
A|---------------------------------------------------------------------------------------
E|---------------------------------------------------------------------------------------

Stave 7:

E|----------------------------------------------------------------------------------------
B|--------------------------8--------------10--------------12-----12--12--12--12--12--12--
G|-----------9----------------------------------------------------------------------------
D|--7--8--9--------7--8--9--------7--8--9---------7--8--9---------------------------------
A|----------------------------------------------------------------------------------------
E|----------------------------------------------------------------------------------------

Stave 8:

E|------------------------------------------------------------------
B|--10--10--10--10--10--10--8--8--8--8--8--8--7--7--7--7--8--10--5--
G|------------------------------------------------------------------
D|------------------------------------------------------------------
A|------------------------------------------------------------------
E|------------------------------------------------------------------

http://www.guitartabcreator.com
Guitar Tab Creator is intended to store guitar tab created through the tool. It currently does not support in-line text editing. Any text you place in here will be lost. If you need to comment on your tab, please use the "Tab Notes" section located below.