Sound will begin in 5 seconds

The First Dope Guitar Tab

Chords
01234567891011121314151617181920212223
E
B
G
D
A
E
B
0 1 2 3 4 5 6 7 8 9 10 11 12 13 14 15 16 17 18 19 20 21 22 23
Song Science #1: How Pros Use 6 Chords to Write Hit Songs
(/) Slide Up  (\) Slide Down  (h) Hammer On  (p) Pull Off  (b) Bend (r) Release (v) Vibrato

Stave 1:

E|-------------------------------------------------------------------------------------------------------
B|-------------------------------------------------------------------------------------------------------
G|-------------------------------------------------------------------------------------------8--9--------
D|--------4--5--------7--6--------4--5--6--5--4--5--------6--7--------10--9--------8--9--10--6--7--------
A|--------2--3--------5--4--------2--3--4--3--2--3--------4--5--------8---7--------6--7--8---------------
E|--0--0--------0--0--------0--0--------------------0--0--------0--0---------0--0------------------0--0--

Stave 2:

E|---------------------------------------------------------------------------------------------------
B|---------------------------------------------------------------------------------------------------
G|----------------------------11--10--9--10--12--11--------------------------------------------------
D|--12--11--------8--9--------9---8---7--8---10--9---------------------------------------------5--6--
A|--10--9---------6--7-------------------------------------2--3--------5--4--------5--6--7--6--3--4--
E|----------0--0--------0--0-------------------------0--0--0--1--0--0--3--2--0--0--3--4--5--4--------

Stave 3:

E|---------------------------------------------------
B|---------------------------------------------------
G|--------------------------------------10--9--8--9--
D|--------4--5--------9--8--------8--9--8---7--6--7--
A|--------2--3--------7--6--------6--7---------------
E|--0--0--------0--0--------0--0---------------------

http://www.guitartabcreator.com
Guitar Tab Creator is intended to store guitar tab created through the tool. It currently does not support in-line text editing. Any text you place in here will be lost. If you need to comment on your tab, please use the "Tab Notes" section located below.