Sound will begin in 5 seconds

verse

01234567891011121314151617181920212223
E
B
G
D
A
E
B
0 1 2 3 4 5 6 7 8 9 10 11 12 13 14 15 16 17 18 19 20 21 22 23
Song Science #1: How Pros Use 6 Chords to Write Hit Songs
(/) Slide Up  (\) Slide Down  (h) Hammer On  (p) Pull Off  (b) Bend (r) Release (v) Vibrato

Stave 1:

E|-----------------------------------------------------------------
B|-----------------------------------------------------------------
G|-----------------------------------------------------------------
D|------------------------------------------------------------6h9--
A|----------------------------------2h3------------------5h8-------
E|--------4p1-------------4p1------------------4p1-----------------
A|--0--0-------3h4--0--0-------3h4-------0--0-------3h4------------

Stave 2:

E|------------------------------------------------------------------
B|------------------------------------------------------------------
G|------------------------------------------------------------------
D|------------------------------------------------------------9h10--
A|----------------------------------2h3------------------7h8--------
E|--------4p1-------------4p1------------------4p1------------------
A|--0--0-------3h4--0--0-------3h4-------0--0-------3h4-------------

Stave 3:

E|-----------------------------------------------------------------
B|-----------------------------------------------------------------
G|-----------------------------------------------------------------
D|------------------------------------------------------------6h9--
A|----------------------------------2h3------------------5h8-------
E|--------4p1-------------4p1------------------4p1-----------------
A|--0--0-------3h4--0--0-------3h4-------0--0-------3h4------------

Stave 4:

E|-------------------------------------------------------------------
B|-------------------------------------------------------------------
G|-------------------------------------------------------------------
D|-------------------------------------------------------------------
A|----------------------------------2h3------------------------------
E|--------4p1-------------4p1------------------4p1-------------------
A|--0--0-------3h4--0--0-------3h4-------0--0-------3h4--3--3--1--1--

Stave 5:

E|-----------------------------------------------------------------------------------
B|-----------------------------------------------------------------------------------
G|-----------------------------------------------------------------------------7h10--
D|------------------------------------------------------------------------6h9--------
A|----------------------------------------------2h3------------------5h8-------------
E|--------4p1-------------------------4p1------------------4p1-----------------------
A|--0--0-------3h4--0--0--0--0--0--0-------3h4-------0--0-------3h4------------------

Stave 6:

E|------------------------------------------------------------------------------------
B|------------------------------------------------------------------------------------
G|------------------------------------------------------------------------------8h11--
D|------------------------------------------------------------------------9h10--------
A|----------------------------------------------2h3------------------7h8--------------
E|--------4p1-------------------------4p1------------------4p1------------------------
A|--0--0-------3h4--0--0--0--0--0--0-------3h4-------0--0-------3h4-------------------

Stave 7:

E|-----------------------------------------------------------------------------------
B|-----------------------------------------------------------------------------------
G|-----------------------------------------------------------------------------7h10--
D|------------------------------------------------------------------------6h9--------
A|----------------------------------------------2h3------------------5h8-------------
E|--------4p1-------------------------4p1------------------4p1-----------------------
A|--0--0-------3p4--0--0--0--0--0--0-------3h4-------0--0-------3h4------------------

Stave 8:

E|-------------------------------------------------------------------------------------
B|-------------------------------------------------------------------------------------
G|-------------------------------------------------------------------------------------
D|-------------------------------------------------------------------------------------
A|----------------------------------------------2h3------------------------------------
E|--------4p1-------------------------4p1------------------4p1-------------------------
A|--0--0-------3h4--0--0--0--0--0--0-------3h4-------0--0-------3h4--4--4--3--3--1--1--

http://www.guitartabcreator.com
Guitar Tab Creator is intended to store guitar tab created through the tool. It currently does not support in-line text editing. Any text you place in here will be lost. If you need to comment on your tab, please use the "Tab Notes" section located below.