Sound will begin in 5 seconds

chorus/transition/interlude/whatever

Chords
01234567891011121314151617181920212223
E
B
G
D
A
E
B
0 1 2 3 4 5 6 7 8 9 10 11 12 13 14 15 16 17 18 19 20 21 22 23
Song Science #1: How Pros Use 6 Chords to Write Hit Songs
(/) Slide Up  (\) Slide Down  (h) Hammer On  (p) Pull Off  (b) Bend (r) Release (v) Vibrato

Stave 1:

E|-----|--------|-----|--------------------------------------|--
B|-----|--------|-----|--------------------------------------|--
G|-----|--------|-----|--------------------------------------|--
D|-----|-----9--|-----|---------------------------------7h8--|--
A|--8--|--7--8--|--0--|----------------9h12-------9h10-------|--
E|--8--|--7-----|--0--|----------8h11------------------------|--
A|--8--|--7-----|--0--|--10--10--------------8p7-------------|--

Stave 2:

E|-----|--------|-----------------------|-----------------------------------9h10--|--
B|-----|--------|-----------------------|----------------9h12--------11h12--------|--
G|-----|--------|-----------------------|----------8h11---------------------------|--
D|-----|-----9--|-----------------------|--10--10--------------10p9---------------|--
A|--8--|--7--8--|--3-----3--3--3-----3--|-----------------------------------------|--
E|--8--|--7-----|--2-----2--2--2-----2--|-----------------------------------------|--
A|--8--|--7-----|--2-----2--2--2-----2--|-----------------------------------------|--

Stave 3:

E|-----|--------|-----|---------------------------------|--
B|-----|--------|-----|---------------------------------|--
G|-----|--------|-----|---------------------------------|--
D|-----|-----9--|-----|----------------------------4p4--|--
A|--8--|--7--8--|--0--|----------------9h12--3--2-------|--
E|--8--|--7-----|--0--|----------8h11--------3--2-------|--
A|--8--|--7-----|--0--|--10--10--------------3--2-------|--

Stave 4:

E|-----|--------|------------------------|------------------12-----|--
B|-----|--------|------------------------|--------------13---------|--
G|-----|--------|------------------------|----------14-------------|--
D|-----|-----9--|--14--------------------|------14-----------------|--
A|--8--|--7--8--|--15-----0--0--0-----0--|--12---------------------|--
E|--8--|--7-----|--12-----0--0--0-----0--|-------------------------|--
A|--8--|--7-----|--12-----0--0--0-----0--|-------------------------|--

http://www.guitartabcreator.com
Guitar Tab Creator is intended to store guitar tab created through the tool. It currently does not support in-line text editing. Any text you place in here will be lost. If you need to comment on your tab, please use the "Tab Notes" section located below.