Sound will begin in 5 seconds

surf tune theme

01234567891011121314151617181920212223
E
B
G
D
A
E
B
0 1 2 3 4 5 6 7 8 9 10 11 12 13 14 15 16 17 18 19 20 21 22 23
Song Science #1: How Pros Use 6 Chords to Write Hit Songs
(/) Slide Up  (\) Slide Down  (h) Hammer On  (p) Pull Off  (b) Bend (r) Release (v) Vibrato

Stave 1:

E|--------------------------------------------------------------------------------------------------------
B|--------------------------------------------------------------------------------------------------------
G|--------------------------------------------------------------------------------------------------------
D|--7-----7--9--11--9--7--9--6-----7--6--4--------11--9-----11--9--7--9--11--9--7h9--6-----7--6--4--------
A|-----7---------------------------------------7-------------------------------------------------------7--
E|--------------------------------------------------------------------------------------------------------

Stave 2:

E|-------------------------------------------------------------------------------------------------------
B|-------------------------------------------------------------------------------------------------------
G|-------------6--7--9-----6/11--9--7h9--6-----6--9--7/11--11--9--7h9------------------------------------
D|--11-----------------------------------------------------------------7--9--11--9--7h9--6-----6h7--6\4--
A|------11-----------------------------------------------------------------------------------------------
E|-------------------------------------------------------------------------------------------------------

Stave 3:

E|------------------------------------------------------------------------------------------------------------
B|-----------------10h12--14p12--10--10--9--10h12--9-----9h10--9\7-----7--7--7--5--5--5-----------------------
G|-----------9h11------------------------------------------------------------------------7--7--7--9--9--9--7--
D|-----9h11---------------------------------------------------------------------------------------------------
A|--7---------------------------------------------------------------------------------------------------------
E|------------------------------------------------------------------------------------------------------------

Stave 4:

E|----------------------------------------------------------------------------------------------------
B|---------------------------------------------10-----------------------------------------------------
G|--7-----------------------------11--9--9h11-------------9-------------------------------------------
D|-----7-----7--9--11--9--11--12-------------------9--11--------11--9--11--9--7-----9--11--9--11--12--
A|-----------------------------------------------------------7----------------------------------------
E|----------------------------------------------------------------------------------------------------

Stave 5:

E|----------------------------------------------------------------------------------
B|---------14--14--12--10--10-----10--10--10--9--10h12--9--9--9--9--10--12--12--10--
G|--11--9---------------------------------------------------------------------------
D|----------------------------------------------------------------------------------
A|----------------------------------------------------------------------------------
E|----------------------------------------------------------------------------------

http://www.guitartabcreator.com
Guitar Tab Creator is intended to store guitar tab created through the tool. It currently does not support in-line text editing. Any text you place in here will be lost. If you need to comment on your tab, please use the "Tab Notes" section located below.