Sound will begin in 5 seconds

Roses by Mackenzie Bourg

Chords
01234567891011121314151617181920212223
E
B
G
D
A
E
B
0 1 2 3 4 5 6 7 8 9 10 11 12 13 14 15 16 17 18 19 20 21 22 23
Song Science #1: How Pros Use 6 Chords to Write Hit Songs
(/) Slide Up  (\) Slide Down  (h) Hammer On  (p) Pull Off  (b) Bend (r) Release (v) Vibrato

Stave 1:

E|-----------------------------------------------------------------------------
B|-----------------------------------------------------------------------------
G|---------------------------------------9h11--9--11---------------------9-----
D|--9h11--9--11--9-----------------9h11--9-----9--9---9-----------9--9---9h11--
A|--9---------------9h11--9h11--9--9------------------9h11--9h11--9--11--------
E|-----------------------------------------------------------------------------

Stave 2:

E|------------------------------------------------------------------------------------
B|------------------------------------------------------------------------------------
G|--9---------------------------------------------------------------------------------
D|--9h11--9-----9-----9--9h11--9--9-----9-----9--9--9h11--11-----9h11--9--------------
A|--------9h11--9h11--9--0-----0--9h11--9h11--9--9--0---------0--0-----0--9h11--9h11--
E|------------------------------------------------------------------------0-----0-----

Stave 3:

E|-----------9-----7--9--7--
B|--------------------------
G|--------8-----8-----8--8--
D|--------9-----9-----9--9--
A|--9--7--------------------
E|--0--0--------------------

Stave 4:

E|------------------------------------------------------------------------------------
B|------------------------------------------------------------------------------------
G|--9---------------------------------------------------------------------------------
D|--9h11--9-----9-----9--9h11--9--9-----9-----9--9--9h11--11-----9h11--9--------------
A|--------9h11--9h11--9--0-----0--9h11--9h11--9--9--0---------0--0-----0--9h11--9h11--
E|------------------------------------------------------------------------0-----0-----

Stave 5:

E|-----------9-----7--9--7--
B|--------------------------
G|--------8-----8-----8--8--
D|--------9-----9-----9--9--
A|--9--7--------------------
E|--0--0--------------------

http://www.guitartabcreator.com
Guitar Tab Creator is intended to store guitar tab created through the tool. It currently does not support in-line text editing. Any text you place in here will be lost. If you need to comment on your tab, please use the "Tab Notes" section located below.