Sound will begin in 5 seconds

Untitled (Bass)

01234567891011121314151617181920212223
E
B
G
D
A
E
B
0 1 2 3 4 5 6 7 8 9 10 11 12 13 14 15 16 17 18 19 20 21 22 23
Song Science #1: How Pros Use 6 Chords to Write Hit Songs
(/) Slide Up  (\) Slide Down  (h) Hammer On  (p) Pull Off  (b) Bend (r) Release (v) Vibrato

Stave 1:

G|--------------------------
D|-----------------6-----7--
A|--5--4--0--4--------------
D|--------------6-----7-----

Stave 2:

G|---------------------------------------------------------------------------
D|--0--12--0--10--12--0--10--12--10--12--0--15--0--10--12--0--15--0--10--12--
A|---------------------------------------------------------------------------
D|---------------------------------------------------------------------------

Stave 3:

G|---------------------------------------------------------------------------
D|-------------------------------15--------------------------------------15--
A|--0--12--0--10--12--0--12--13------0--12--0--10--12--0--12--0--12--13------
D|---------------------------------------------------------------------------

Stave 4:

G|-----------------------------------------------
D|-----5-----3--5-----3--5--3--5-----------------
A|-----------------------------------------------
D|--5-----5--------5--------------3--3--3--3--3--

Stave 5:

G|-----------5-----------5-------------------------5--
D|-----5-----------5------------------10-----5--------
A|--5-----5-----3-----3--------10---------3-----3-----
D|--------------------------8------8------------------

Stave 6:

G|------------------------------------------
D|------------------------------------------
A|--0--2--3--5--3--2-----0--2--3--5--7--10--
D|--------------------5---------------------

Stave 7:

G|-----
D|-----
A|-----
D|--0--

Stave 8:

G|-----------------------------------12--10----------
D|--15--0--10--12--0--15--0--10--12----------12--10--
A|---------------------------------------------------
D|---------------------------------------------------

Stave 9:

G|-----------------------------------
D|-----------15--0--10--12--0--5--6--
A|--0--3--4--------------------------
D|-----------------------------------

Stave 10:

G|-----------5--------
D|--0--3--------5--6--
A|--------3-----------
D|--------------------

Stave 11:

G|--------------------2--0--------------------------------------------
D|--0-----------3--5--------------------------2--3--2-----------------
A|-----3--1--3--------------5--3--5--3--1--3-----------3--5--3--1--3--
D|--------------------------------------------------------------------

Stave 12:

G|-----------
D|-----------
A|--0--3--4--
D|-----------

Stave 13:

G|-----------------------------------
D|--0--2--0--7--6--0--7--6--0--7--6--
A|-----------------------------------
D|-----------------------------------

http://www.guitartabcreator.com
Guitar Tab Creator is intended to store guitar tab created through the tool. It currently does not support in-line text editing. Any text you place in here will be lost. If you need to comment on your tab, please use the "Tab Notes" section located below.