Sound will begin in 5 seconds

Untitled (2nd Guitar)

Chords
01234567891011121314151617181920212223
E
B
G
D
A
E
B
0 1 2 3 4 5 6 7 8 9 10 11 12 13 14 15 16 17 18 19 20 21 22 23
Song Science #1: How Pros Use 6 Chords to Write Hit Songs
(/) Slide Up  (\) Slide Down  (h) Hammer On  (p) Pull Off  (b) Bend (r) Release (v) Vibrato

Stave 1:

E|------------------13------------------------------13--------------
B|----------10--------------10--------------10--------------10------
G|------12----------------------12------12----------------------12--
D|--12----------12------12----------12----------12------12----------
A|------------------------------------------------------------------
D|------------------------------------------------------------------

Stave 2:

E|-----------------12----------------------------12-------------
B|---------10--------------10------------10--------------10-----
G|------9----------------------9------9----------------------9--
D|--11---------11------11---------11---------11------11---------
A|--------------------------------------------------------------
D|--------------------------------------------------------------

Stave 3:

E|----------------11--------------------------11------------
B|---------9--------------9------------9--------------9-----
G|------8--------------------8------8--------------------8--
D|--10--------10------10--------10--------10------10--------
A|----------------------------------------------------------
D|----------------------------------------------------------

Stave 4:

E|------------0--------------------0------------------------
B|---------------13-------------------13----------------13--
G|-----10------------10-----10------------10-----10---------
D|--0------0-------------0------0-------------0------0------
A|----------------------------------------------------------
D|----------------------------------------------------------

Stave 5:

E|------------0--------------------0------------------------
B|---------------13-------------------13----------------13--
G|-----10------------10-----10------------10-----10---------
D|----------------------------------------------------------
A|--0------0-------------0------0-------------0------0------
D|----------------------------------------------------------

Stave 6:

E|------------0--------------------0------------------------
B|---------------13-------------------13----------------13--
G|--0--10--0---------10--0--10--0---------10--0--10--0------
D|----------------------------------------------------------
A|----------------------------------------------------------
D|----------------------------------------------------------

Stave 7:

E|-------------------0-------------------0------------0--
B|---------8------8------------8------8------------8-----
G|-----10-----10-----------10-----10-----------10--------
D|-------------------------------------------------------
A|--8-------------------8-------------------8------------
D|-------------------------------------------------------

Stave 8:

E|--------------------------------------------------
B|--------------------------------------------------
G|-----------0-----------------0-----------------0--
D|--------5-----5-----------5-----5-----------5-----
A|-----5-----------5-----5-----------5-----5--------
D|--0-----------------0-----------------0-----------

Stave 9:

E|--------------------------------------------------
B|--------------------------------------------------
G|-----------0-----------------0-----------------0--
D|--------3-----3-----------3-----3-----------3-----
A|-----3-----------3-----3-----------3-----3--------
D|--3-----------------3-----------------3-----------

Stave 10:

E|-----
B|-----
G|-----
D|--0--
A|--0--
D|--0--

Stave 11:

E|-----------------------------------------------
B|-----------------------------------------------
G|-----------------------------------------------
D|-----------------------------------------------
A|-----------------------------------------------
D|--12--0--0--0--10--12--0--0--0--0--0--0--0--0--

Stave 12:

E|---------------------------------------------------
B|---------------------------------------------------
G|---------------------------------------------------
D|---------------------------------------------------
A|---------------------------------------------------
D|--15--0--0--12--0--0--10--12--0--0--0--0--0--0--0--

Stave 13:

E|---------------------------------------------------
B|---------------------------------------------------
G|---------------------------------------------------
D|---------------------------------------------------
A|--12--0--0--10--0--0--10--12--0--0--0--0--0--0--0--
D|---------------------------------------------------

Stave 14:

E|------------------------------------------------
B|------------------------------------------------
G|---------------------------------------------7--
D|------------------------------------------7-----
A|--12--0--0--10--0--0--10--12--0--0--0--0--------
D|------------------------------------------------

Stave 15:

E|------------------------------------------------
B|------------------------------------------------
G|------------------------------------------------
D|------------------------------------------------
A|------------------------------------------5--6--
D|--12--0--0--10--0--0--10--12--0--0--0--0--5--6--

Stave 16:

E|-----------------
B|-----------------
G|--------5--------
D|--0--3--5--5--6--
A|--0--3--3--5--6--
D|--0--3-----5--6--

Stave 17:

E|--5-----------------------0--------------0--------3--------------------5-----------------------
B|--6-----------6-----------1-----------1-----1-----3--------3-----------5-----------5-----------
G|--7--------------------7--2-----2--------------2--3-----------3--------5-----5-----------5-----
D|--7-----7-----------7-----2-----------------------3-----3--------3-----5--------------------5--
A|--5--5-----5-----5--------0--0-----0--------------1--1--------------1--3--3-----3-----3--------
D|-----------------------------------------------------------------------------------------------

Stave 18:

E|--5-----------------------3-----------3-----------6--------6--------------5--------5--------------
B|--6-----------6-----------4--------------4--------6-----------6-----------5-----------5-----------
G|--7-----------------7-----5-----5-----------5-----6-----6--------6--------5-----5--------5--------
D|--7-----7--------------7--5--------------------5--6-----------------6-----5-----------------5-----
A|--5--5-----5-----5--------3--3-----3--------------4--4-----------------4--3--3-----------------3--
D|--------------------------------------------------------------------------------------------------

Stave 19:

E|--5-----------------------5-----------------------
B|--6-----------6-----------5-----------5-----------
G|--7-----7-----------7-----7-----7--------7--------
D|--7--------------------7--6-----------------6-----
A|--5--5-----5-----5--------5--5-----5-----------5--
D|--------------------------------------------------

Stave 20:

E|---------
B|--6--12--
G|--7--13--
D|---------
A|--5--11--
D|---------

Stave 21:

E|--------------------------
B|--------4--------4-----4--
G|--------7--------7-----7--
D|--------------------------
A|--------------------------
D|--0--0-----0--0-----0-----

http://www.guitartabcreator.com
Guitar Tab Creator is intended to store guitar tab created through the tool. It currently does not support in-line text editing. Any text you place in here will be lost. If you need to comment on your tab, please use the "Tab Notes" section located below.