Sound will begin in 5 seconds

Anime Theme Mashup (In Progress)

01234567891011121314151617181920212223
E
B
G
D
A
E
B
0 1 2 3 4 5 6 7 8 9 10 11 12 13 14 15 16 17 18 19 20 21 22 23
Song Science #1: How Pros Use 6 Chords to Write Hit Songs
(/) Slide Up  (\) Slide Down  (h) Hammer On  (p) Pull Off  (b) Bend (r) Release (v) Vibrato

Stave 1:

E|-----------------------------------------------------------------------------------------------
B|-------------------------------9--8-------------------------------9--8-------------------------
G|--------8--8-----8--10--8--10--------8--------8--8-----8--10--10--------10--8--10--8-----8--8--
D|--8--8--------8-------------------------8--8--------8------------------------------------------
A|-----------------------------------------------------------------------------------------------
E|-----------------------------------------------------------------------------------------------

Stave 2:

E|-----------------------------------------------------------------------------------
B|-----------------------------------------------------------------------------------
G|-----------------------------------------------------------------------------------
D|--8--6--5-----------11--10--8------8--8--6--5--------------------------8--6-----6--
A|-----------8--6----------------11--------------8--6--------6--8--9-----------9-----
E|-----------------------------------------------------------------------------------

Stave 3:

E|----------------------------------------------------------------------------------------------------------
B|----------------------------------------------------------------------------------------------------------
G|-------------------------------8--8--10--7--7h8--------8--8--8--8--7--------------------------------------
D|--8--6h8p6-----5--------8--10-----------------------------------------10--8--10---------------------------
A|------------------8--6-----------------------------------------------------------8--10--11--11--10--8--6--
E|----------------------------------------------------------------------------------------------------------

Stave 4:

E|-------------------------------------------------------------------------------------------------------
B|------------------------------------------------9----------------------------9-------------------------
G|----------9--8----------------9--8-----------------9--11--8--9------8-----------9--11--8--9--8---------
D|--11--11--------9--9--11--11--------9---------------------------11-----9------------------------11--9--
A|-------------------------------------------------------------------------------------------------------
E|-------------------------------------------------------------------------------------------------------

Stave 5:

E|--
B|--
G|--
D|--
A|--
E|--

http://www.guitartabcreator.com
Guitar Tab Creator is intended to store guitar tab created through the tool. It currently does not support in-line text editing. Any text you place in here will be lost. If you need to comment on your tab, please use the "Tab Notes" section located below.