Sound will begin in 5 seconds

2nd & Virginia Chorus (rhythm guitar)

Chords
01234567891011121314151617181920212223
E
B
G
D
A
E
B
0 1 2 3 4 5 6 7 8 9 10 11 12 13 14 15 16 17 18 19 20 21 22 23
Song Science #1: How Pros Use 6 Chords to Write Hit Songs
(/) Slide Up  (\) Slide Down  (h) Hammer On  (p) Pull Off  (b) Bend (r) Release (v) Vibrato

Stave 1:

E|------------------|--------------|--------------|--------------|------------------|--------------
B|------------------|--------------|--------------|--------------|------------------|--------------
G|--7---7---7---7---|--5--5-----2--|--------2-----|--------2-----|--7---7---7---7---|--5--5-----2--
D|--7---7---7---7---|--5--5-----0--|--------0-----|--------0-----|--7---7---7---7---|--5--5-----0--
A|--9---9---9---9---|--7--7-----0--|--------0-----|--------0-----|--9---9---9---9---|--7--7-----0--
E|--10--10--10--10--|--8--8-----3--|-----3--3--3--|--3--3--3--3--|--10--10--10--10--|--8--8-----3--

Stave 2:

E|--------------|--------------|------------------|------------------|--------------|--------------
B|--------------|--------------|------------------|------------------|--------------|--------------
G|--------2-----|--------2-----|--7---7---7---7---|--7---7---7---7---|--5--5--5--5--|--5--5--5--5--
D|--------0-----|--------0-----|--7---7---7---7---|--7---7---7---7---|--5--5--5--5--|--5--5--5--5--
A|--------0-----|--------0-----|--9---9---9---9---|--9---9---9---9---|--7--7--7--7--|--7--7--7--7--
E|-----3--3--3--|--3--3--3--3--|--10--10--10--10--|--10--10--10--10--|--8--8--8--8--|--8--8--8--8--

Stave 3:

E|--
B|--
G|--
D|--
A|--
E|--

http://www.guitartabcreator.com
Guitar Tab Creator is intended to store guitar tab created through the tool. It currently does not support in-line text editing. Any text you place in here will be lost. If you need to comment on your tab, please use the "Tab Notes" section located below.