Sound will begin in 5 seconds

Autumn Leaves Eric Clapton

01234567891011121314151617181920212223
E
B
G
D
A
E
B
0 1 2 3 4 5 6 7 8 9 10 11 12 13 14 15 16 17 18 19 20 21 22 23
(/) Slide Up  (\) Slide Down  (h) Hammer On  (p) Pull Off  (b) Bend (r) Release (v) Vibrato

Stave 1:

E|--------------------------------------------------------------------7-------------------------------
B|--12/14b15--14b15r14--12--10-------------------------------------7----------------------------------
G|------------------------------11--11--9h11p9--7\0-----7--9b11r9--------9b11r9--7-----7h9--7h9--7h9--
D|---------------------------------------------------7------------------------------9-----------------
A|----------------------------------------------------------------------------------------------------
E|----------------------------------------------------------------------------------------------------

Stave 2:

E|-------------------------------------------------------------------------------------------------10--
B|-----------------------------------------------------------------------------------------10--12------
G|--7----------7-----------------------------------------------------------------7--9--11--------------
D|-----9--7h9----------7--9------------------------------------------------7--9------------------------
A|----------------8/9--------7v--5------5v--5v---------------------7--8/9------------------------------
E|----------------------------------7v----------7--0--------7--10--------------------------------------

Stave 3:

E|--12/14\12--------10h12p10--9---------------------------------------------------------
B|----------------------------------------------10-----------------10--10--12-----------
G|----------------------------------------9/11------9--7-----9/11--------------11\9--7--
D|--------------------------------------------------------9-----------------------------
A|--------------------------------------------------------------------------------------
E|--------------------------------------------------------------------------------------

Stave 4:

E|--9---------9--9--12-----------------------------------------------------
B|-----9--12-------------------------------------------------15------------
G|---------------------------------------------------14--16------16v--16v--
D|-------------------------------------------14--16------------------------
A|-------------------------------12--14--17--------------------------------
E|-------------------------------------------------------------------------

http://www.guitartabcreator.com
Guitar Tab Creator is intended to store guitar tab created through the tool. It currently does not support in-line text editing. Any text you place in here will be lost. If you need to comment on your tab, please use the "Tab Notes" section located below.