Sound will begin in 5 seconds

Heaven & Hell

Chords
01234567891011121314151617181920212223
E
B
G
D
A
E
B
0 1 2 3 4 5 6 7 8 9 10 11 12 13 14 15 16 17 18 19 20 21 22 23
Song Science #1: How Pros Use 6 Chords to Write Hit Songs
(/) Slide Up  (\) Slide Down  (h) Hammer On  (p) Pull Off  (b) Bend (r) Release (v) Vibrato

Stave 1:

E|--------------------------------------------
B|--------------------------------------------
G|--2--------3--7--5--------------------------
D|-----0--------------7h5-----5\4-----4/5--7--
A|--------------------------------------------
D|--0-----0-----0----------0-------0----------

Stave 2:

E|--------------------------------
B|--------------------------------
G|--3-----2-----------------3--2--
D|--------------3--2--3--5--------
A|--------------------------------
D|--0--0-----0--------------0-----

Stave 3:

E|----------------------------------------------
B|----------------------------------------------
G|--10------10\5--7-----7\2--3-----3/5-----5\2--
D|----------------------------------------------
A|----------------------------------------------
D|--10--10-----5--7--7----0--3--3----5--5----0--

Stave 4:

E|--------------------|-----------------------------|--------------
B|--------------------|-----------------------------|--------------
G|--5--3--3--3--3--3--|--5--3--3--3--3--3--3--3--3--|--2--2--2--2--
D|--3--3--5--3--3--5--|--3--3--5--3--3--5--5--5--5--|--0--0--0--0--
A|--3--3--3--3--3--3--|--3--3--3--3--3--3--3--3--3--|--0--0--0--0--
D|--3--3--3--3--3--3--|--3--3--3--3--3--3--3--3--3--|--0--0--0--0--

Stave 5:

E|--------------------|--------------------|--------------------|--------------
B|--------------------|--------------------|--------------------|--------------
G|--5--3--3--3--3--3--|--5--5--5--5--5--7--|--5--3--3--3--3--3--|--3--3--3--2--
D|--3--3--5--3--3--5--|--7--7--7--7--7--5--|--3--3--5--3--3--5--|--5--5--5--0--
A|--3--3--3--3--3--3--|--5--5--5--5--5--5--|--3--3--3--3--3--3--|--3--3--3--0--
D|--3--3--3--3--3--3--|--5--5--5--5--5--5--|--3--3--3--3--3--3--|--3--3--3--0--

http://www.guitartabcreator.com
Guitar Tab Creator is intended to store guitar tab created through the tool. It currently does not support in-line text editing. Any text you place in here will be lost. If you need to comment on your tab, please use the "Tab Notes" section located below.