Lied 4

Chords

01234567891011121314151617181920212223
E
B
G
D
A
E
B
0 1 2 3 4 5 6 7 8 9 10 11 12 13 14 15 16 17 18 19 20 21 22 23
(/) Slide Up  (\) Slide Down  (h) Hammer On  (p) Pull Off  (b) Bend (r) Release (v) Vibrato

Stave 1:

G|-----------------------------------------------
D|-----------------------------------------------
A|--------------------------------------3--0-----
E|--0--0--1--0--0--1--0--1--0--0--1--0--------1--
B|-----------------------------------------------

Stave 2:

G|--------------------------------------------------
D|--------------------------------------------------
A|--------------------------------------3--0--2-----
E|--0--0--1--0--0--1--0--1--0--0--1--0-----------1--
B|--------------------------------------------------

Stave 3:

G|--------------------
D|--------------------
A|-----------3--0-----
E|--1--0--1--------0--
B|--------------------

Stave 4:

G|-----------------------------------------
D|-----------------------------------------
A|--0--1--4-----0--1--4--3-----0--1--4--3--
E|-----------------------------------------
B|-----------------------------------------

							http://www.guitartabcreator.com
Instruments
{"strings":[[[".",".",".",".",".",".",".",".",".",".",".",".",".",".","."],[".",".",".",".",".",".",".",".",".",".",".",".",".",".","."],[".",".",".",".",".",".",".",".",".",".",".",".",3,0,"."],[0,0,1,0,0,1,0,1,0,0,1,0,".",".",1],[".",".",".",".",".",".",".",".",".",".",".",".",".",".","."]],[[".",".",".",".",".",".",".",".",".",".",".",".",".",".",".","."],[".",".",".",".",".",".",".",".",".",".",".",".",".",".",".","."],[".",".",".",".",".",".",".",".",".",".",".",".",3,0,2,"."],[0,0,1,0,0,1,0,1,0,0,1,0,".",".",".",1],[".",".",".",".",".",".",".",".",".",".",".",".",".",".",".","."]],[[".",".",".",".",".","."],[".",".",".",".",".","."],[".",".",".",3,0,"."],[1,0,1,".",".",0],[".",".",".",".",".","."]],[[".",".",".","_",".",".",".",".","_",".",".",".","."],[".",".",".","_",".",".",".",".","_",".",".",".","."],[0,1,4,"_",0,1,4,3,"_",0,1,4,3],[".",".",".","_",".",".",".",".","_",".",".",".","."],[".",".",".","_",".",".",".",".","_",".",".",".","."]]],"numberofstrings":5,"notes":["G","D","A","E","B"],"capo":0,"stringnotes":["G2","D2","A1","E1","B0"],"comments":["Stave 1:","Stave 2:","Stave 3:","Stave 4:","Stave 5:"],"timing":[["W","W","W","W","W","W","W","W","W","W","W","W","W","W","W"],["W","W","W","W","W","W","W","W","W","W","W","W","W","W","W","W"],["W","W","W","W","W","W"],["W","W","W",null,"W","W","W","W",null,"W","W","W","W"],[]],"timingvisible":false,"tabcounter":0,"totalstaves":4,"instrument":"5bass","selectedtuning":"5bass","version":"13"}

Member for

1 month 3 weeks
Submitted by Hank13 on Sat, 2020-10-10 15:59