Lied 3

Chords

01234567891011121314151617181920212223
E
B
G
D
A
E
B
0 1 2 3 4 5 6 7 8 9 10 11 12 13 14 15 16 17 18 19 20 21 22 23
(/) Slide Up  (\) Slide Down  (h) Hammer On  (p) Pull Off  (b) Bend (r) Release (v) Vibrato

Stave 1:

G|-----------------------------------------------------
D|-----------------------------------------------1-----
A|--2--2--2--2--0--0--0--0--------------5--5--3-----3--
E|--------------------------4--4--4--4-----------------
B|-----------------------------------------------------

Stave 2:

G|--------------------------------------------------
D|--------------------------------------------------
A|--0--0--2--3-----0--2--3--5-----0--0--1--3--------
E|--------------------------------------------3--1--
B|--------------------------------------------------

Stave 3:

G|--------------------------------------------------
D|--------------------------------------------------
A|--------------------------------------------------
E|--4--4--4--4--4--4--4--4--2--2--2--2--2--2--2--2--
B|--------------------------------------------------

Stave 4:

G|-----------------------------
D|-----------------------------
A|-----------3-----------3--0--
E|--0--0--0-----0--0--0--------
B|-----------------------------

							http://www.guitartabcreator.com
Instruments
{"strings":[[[".",".",".",".",".",".",".",".",".",".",".",".",".",".",".",".","."],[".",".",".",".",".",".",".",".",".",".",".",".",".",".",".",1,"."],[2,2,2,2,0,0,0,0,".",".",".",".",5,5,3,".",3],[".",".",".",".",".",".",".",".",4,4,4,4,".",".",".",".","."],[".",".",".",".",".",".",".",".",".",".",".",".",".",".",".",".","."]],[[".",".",".",".","_",".",".",".",".","_",".",".",".",".",".","."],[".",".",".",".","_",".",".",".",".","_",".",".",".",".",".","."],[0,0,2,3,"_",0,2,3,5,"_",0,0,1,3,".","."],[".",".",".",".","_",".",".",".",".","_",".",".",".",".",3,1],[".",".",".",".","_",".",".",".",".","_",".",".",".",".",".","."]],[[".",".",".",".",".",".",".",".",".",".",".",".",".",".",".","."],[".",".",".",".",".",".",".",".",".",".",".",".",".",".",".","."],[".",".",".",".",".",".",".",".",".",".",".",".",".",".",".","."],[4,4,4,4,4,4,4,4,2,2,2,2,2,2,2,2],[".",".",".",".",".",".",".",".",".",".",".",".",".",".",".","."]],[[".",".",".",".",".",".",".",".","."],[".",".",".",".",".",".",".",".","."],[".",".",".",3,".",".",".",3,0],[0,0,0,".",0,0,0,".","."],[".",".",".",".",".",".",".",".","."]]],"numberofstrings":5,"notes":["G","D","A","E","B"],"capo":0,"stringnotes":["G2","D2","A1","E1","B0"],"comments":["Stave 1:","Stave 2:","Stave 3:","Stave 4:"],"timing":[["W","W","W","W","W","W","W","W","W","W","W","W","W","W","W","W","W"],["W","W","W","W",null,"W","W","W","W",null,"W","W","W","W","W","W"],["W","W","W","W","W","W","W","W","W","W","W","W","W","W","W","W"],["W","W","W","W","W","W","W","W","W"]],"timingvisible":false,"tabcounter":9,"stave":3,"totalstaves":4,"instrument":"5bass","selectedtuning":"5bass","version":"13"}

Member for

1 month 3 weeks
Submitted by Hank13 on Sat, 2020-10-10 15:51