Lied 2

Chords

01234567891011121314151617181920212223
E
B
G
D
A
E
B
0 1 2 3 4 5 6 7 8 9 10 11 12 13 14 15 16 17 18 19 20 21 22 23
(/) Slide Up  (\) Slide Down  (h) Hammer On  (p) Pull Off  (b) Bend (r) Release (v) Vibrato

Stave 1:

G|-----------------------------
D|-----------------------------
A|-----------------------------
E|--3-----3--3-----0-----0--0--
B|-----------------------------

Stave 2:

G|-----------------------------------------------------------------------------------
D|-----------------------------------------------------------------------------------
A|-----------------------------------------------------------------------------------
E|--3--3--3--3--4-----3--3--3--4-----3--3--3--4-----3--3--3--7--7--7--7--6--6--6--6--
B|-----------------------------------------------------------------------------------

Stave 3:

G|--------------------------------------------------------------------------------
D|--------------------------------------------------------------------------------
A|--------------------------------------------------------------------------------
E|--3--3--3--3--3--3--3--3-----7--7--7--7--7--7--7--7-----6--6--6--6--6--6--6--6--
B|--------------------------------------------------------------------------------

Stave 4:

G|-----------------------
D|-----------------------
A|-----------------------
E|--1--1--1--1-----0--0--
B|-----------------------

Stave 5:

G|-----------------------------
D|-----------------------------
A|-----------------------------
E|--3--3--3--3-----0--0--0--0--
B|-----------------------------

							http://www.guitartabcreator.com
Instruments
{"strings":[[[".","_",".",".","_",".","_",".","."],[".","_",".",".","_",".","_",".","."],[".","_",".",".","_",".","_",".","."],[3,"_",3,3,"_",0,"_",0,0],[".","_",".",".","_",".","_",".","."]],[[".",".",".",".",".","_",".",".",".",".","_",".",".",".",".","_",".",".",".",".",".",".",".",".",".",".","."],[".",".",".",".",".","_",".",".",".",".","_",".",".",".",".","_",".",".",".",".",".",".",".",".",".",".","."],[".",".",".",".",".","_",".",".",".",".","_",".",".",".",".","_",".",".",".",".",".",".",".",".",".",".","."],[3,3,3,3,4,"_",3,3,3,4,"_",3,3,3,4,"_",3,3,3,7,7,7,7,6,6,6,6],[".",".",".",".",".","_",".",".",".",".","_",".",".",".",".","_",".",".",".",".",".",".",".",".",".",".","."]],[[".",".",".",".",".",".",".",".","_",".",".",".",".",".",".",".",".","_",".",".",".",".",".",".",".","."],[".",".",".",".",".",".",".",".","_",".",".",".",".",".",".",".",".","_",".",".",".",".",".",".",".","."],[".",".",".",".",".",".",".",".","_",".",".",".",".",".",".",".",".","_",".",".",".",".",".",".",".","."],[3,3,3,3,3,3,3,3,"_",7,7,7,7,7,7,7,7,"_",6,6,6,6,6,6,6,6],[".",".",".",".",".",".",".",".","_",".",".",".",".",".",".",".",".","_",".",".",".",".",".",".",".","."]],[[".",".",".",".","_",".","."],[".",".",".",".","_",".","."],[".",".",".",".","_",".","."],[1,1,1,1,"_",0,0],[".",".",".",".","_",".","."]],[[".",".",".",".","_",".",".",".","."],[".",".",".",".","_",".",".",".","."],[".",".",".",".","_",".",".",".","."],[3,3,3,3,"_",0,0,0,0],[".",".",".",".","_",".",".",".","."]]],"numberofstrings":5,"notes":["G","D","A","E","B"],"capo":0,"stringnotes":["G2","D2","A1","E1","B0"],"comments":["Stave 1:","Stave 2:","Stave 3:","Stave 4:","Stave 5:"],"timing":[["W",null,"W","W",null,"W",null,"W","W"],["W","W","W","W","W",null,"W","W","W","W",null,"W","W","W","W",null,"W","W","W","W","W","W","W","W","W","W","W"],["W","W","W","W","W","W","W","W",null,"W","W","W","W","W","W","W","W",null,"W","W","W","W","W","W","W","W"],["W","W","W","W",null,"W","W"],["W","W","W","W",null,"W","W","W","W"]],"timingvisible":false,"tabcounter":9,"stave":4,"totalstaves":5,"instrument":"5bass","selectedtuning":"5bass","version":"13"}

Member for

1 month 3 weeks
Submitted by Hank13 on Fri, 2020-10-09 21:56