Lied 1

Chords

01234567891011121314151617181920212223
E
B
G
D
A
E
B
0 1 2 3 4 5 6 7 8 9 10 11 12 13 14 15 16 17 18 19 20 21 22 23
(/) Slide Up  (\) Slide Down  (h) Hammer On  (p) Pull Off  (b) Bend (r) Release (v) Vibrato

Stave 1:

G|-----------------------------------------------------
D|-----------------------------------------------------
A|-----------------------------------------------------
E|--3--3--3--3--4--4--4--4--6--6--6--6--7--7--7--7-----
B|-----------------------------------------------------

Stave 2:

G|--------------------
D|--------------------
A|--------------------
E|--5--6--3--5--8--3--
B|--------------------

Stave 3:

G|-----------------------------------------------
D|-----------------------------------------------
A|-----------------------------------------------
E|--5--5--5--5--5--5--5--5--5--5--5--5--5--5--6--
B|-----------------------------------------------

Stave 4:

G|--------------------------------------------------------------------------------------------------------------
D|--------------------------------------------------------------------------------------------------------------
A|--------------------------------------------------------------------------------------------------------------
E|--5--5--5--5-----5--5--5--5-----5--5--5--5-----5--5--5--5-----5--5--5--5-----5--5--5--5-----6--5--6--8--6--5--
B|--------------------------------------------------------------------------------------------------------------

Stave 5:

G|--------------------
D|--------------------
A|--0--0--------1--0--
E|--------2--1--------
B|--------------------

Stave 6:

G|-----------------------------------------------------------------------------
D|-----------------------------------------------------------------------------
A|-----------------------------------------------------------------------------
E|--5--5--5--5-----5--5--5--5-----5--5--5--6-----5--5--5--6-----5--5--5--6--8--
B|-----------------------------------------------------------------------------

Stave 7:

G|-----------------------------------------------------------------------------------
D|-----------------------------------------------------------------------------------
A|--5--5--5--5-----5--5--5--5-----5--5--5--5--5--5--5--5-----------------------------
E|-----------------------------------------------------------4--4--4--4--4--4--4--4--
B|-----------------------------------------------------------------------------------

							http://www.guitartabcreator.com
Instruments
{"strings":[[[".",".",".",".",".",".",".",".",".",".",".",".",".",".",".",".","_"],[".",".",".",".",".",".",".",".",".",".",".",".",".",".",".",".","_"],[".",".",".",".",".",".",".",".",".",".",".",".",".",".",".",".","_"],[3,3,3,3,4,4,4,4,6,6,6,6,7,7,7,7,"_"],[".",".",".",".",".",".",".",".",".",".",".",".",".",".",".",".","_"]],[[".",".",".",".",".","."],[".",".",".",".",".","."],[".",".",".",".",".","."],[5,6,3,5,8,3],[".",".",".",".",".","."]],[[".",".",".",".",".",".",".",".",".",".",".",".",".",".","."],[".",".",".",".",".",".",".",".",".",".",".",".",".",".","."],[".",".",".",".",".",".",".",".",".",".",".",".",".",".","."],[5,5,5,5,5,5,5,5,5,5,5,5,5,5,6],[".",".",".",".",".",".",".",".",".",".",".",".",".",".","."]],[[".",".",".",".","_",".",".",".",".","_",".",".",".",".","_",".",".",".",".","_",".",".",".",".","_",".",".",".",".","_",".",".",".",".",".","."],[".",".",".",".","_",".",".",".",".","_",".",".",".",".","_",".",".",".",".","_",".",".",".",".","_",".",".",".",".","_",".",".",".",".",".","."],[".",".",".",".","_",".",".",".",".","_",".",".",".",".","_",".",".",".",".","_",".",".",".",".","_",".",".",".",".","_",".",".",".",".",".","."],[5,5,5,5,"_",5,5,5,5,"_",5,5,5,5,"_",5,5,5,5,"_",5,5,5,5,"_",5,5,5,5,"_",6,5,6,8,6,5],[".",".",".",".","_",".",".",".",".","_",".",".",".",".","_",".",".",".",".","_",".",".",".",".","_",".",".",".",".","_",".",".",".",".",".","."]],[[".",".",".",".",".","."],[".",".",".",".",".","."],[0,0,".",".",1,0],[".",".",2,1,".","."],[".",".",".",".",".","."]],[[".",".",".",".","_",".",".",".",".","_",".",".",".",".","_",".",".",".",".","_",".",".",".",".","."],[".",".",".",".","_",".",".",".",".","_",".",".",".",".","_",".",".",".",".","_",".",".",".",".","."],[".",".",".",".","_",".",".",".",".","_",".",".",".",".","_",".",".",".",".","_",".",".",".",".","."],[5,5,5,5,"_",5,5,5,5,"_",5,5,5,6,"_",5,5,5,6,"_",5,5,5,6,8],[".",".",".",".","_",".",".",".",".","_",".",".",".",".","_",".",".",".",".","_",".",".",".",".","."]],[[".",".",".",".","_",".",".",".",".","_",".",".",".",".",".",".",".",".","_",".",".",".",".",".",".",".","."],[".",".",".",".","_",".",".",".",".","_",".",".",".",".",".",".",".",".","_",".",".",".",".",".",".",".","."],[5,5,5,5,"_",5,5,5,5,"_",5,5,5,5,5,5,5,5,"_",".",".",".",".",".",".",".","."],[".",".",".",".","_",".",".",".",".","_",".",".",".",".",".",".",".",".","_",4,4,4,4,4,4,4,4],[".",".",".",".","_",".",".",".",".","_",".",".",".",".",".",".",".",".","_",".",".",".",".",".",".",".","."]]],"numberofstrings":5,"notes":["G","D","A","E","B"],"capo":0,"stringnotes":["G2","D2","A1","E1","B0"],"comments":["Stave 1:","Stave 2:","Stave 3:","Stave 4:","Stave 5:","Stave 6:","Stave 7:"],"timing":[["W","W","W","W","W","W","W","W","W","W","W","W","W","W","W","W"],["W","W","W","W","W","W"],["W","W","W","W","W","W","W","W","W","W","W","W","W","W","W"],["W","W","W","W",null,"W","W","W","W",null,"W","W","W","W",null,"W","W","W","W",null,"W","W","W","W",null,"W","W","W","W",null,"W","W","W","W","W","W"],["W","W","W","W","W","W"],["W","W","W","W",null,"W","W","W","W",null,"W","W","W","W",null,"W","W","W","W",null,"W","W","W","W","W"],["W","W","W","W",null,"W","W","W","W",null,"W","W","W","W","W","W","W","W",null,"W","W","W","W","W","W","W","W"]],"timingvisible":false,"tabcounter":27,"stave":6,"totalstaves":7,"instrument":"5bass","selectedtuning":"5bass","version":"13"}

Member for

1 month 3 weeks
Submitted by Hank13 on Fri, 2020-10-09 21:50