Sound will begin in 5 seconds

waa

01234567891011121314151617181920212223
E
B
G
D
A
E
B
0 1 2 3 4 5 6 7 8 9 10 11 12 13 14 15 16 17 18 19 20 21 22 23
Song Science #1: How Pros Use 6 Chords to Write Hit Songs
(/) Slide Up  (\) Slide Down  (h) Hammer On  (p) Pull Off  (b) Bend (r) Release (v) Vibrato

Stave 1:

E|------------------------------------------------------------------------------------------------------------------------------------------
B|----------------------------------------------------------------------------------------------------------------------------------12--14--
G|--13--13--11--13----------11--11--13--11----------11--11--11--13--10--10----------10----------15--15--13--15----------13--13--15----------
D|------------------13--13------------------11--11--------------------------13--13------10--10------------------15--15----------------------
A|------------------------------------------------------------------------------------------------------------------------------------------
E|------------------------------------------------------------------------------------------------------------------------------------------

Stave 2:

E|--11--13--14--13--11------11------------------------------------------------------------------------------------------------------------
B|----------------------12------14--12------12--------------------------------------------------------------------------------------------
G|--------------------------------------13------13--11--------------------16--16--15--16----------15--15--15--16--------------------------
D|------------------------------------------------------14--13--13------------------------18--18------------------18--18--18--18--16--18--
A|----------------------------------------------------------------------------------------------------------------------------------------
E|----------------------------------------------------------------------------------------------------------------------------------------

Stave 3:

E|--------------------------------------------------11--12--14--16--14--12------12---------------------------------------------
B|----------14--14--12--14----------12--10--12--14--------------------------13------14--12-------------------------------------
G|--15--16------------------13--13----------------------------------------------------------14--13-----------------------------
D|-----------------------------------------------------------------------------------------------------------------------------
A|-----------------------------------------------------------------------------------------------------------------------------
E|-----------------------------------------------------------------------------------------------------------------------------

Stave 4:

E|-----------------------------------------------------------------------------------------------------------------------------------------------------------
B|-----------------------------------------------------------------------------7--9--9--7--9--------7--7--7--9--9--9--7--9--9--7--9--------7--7--7--9--9--9--
G|--9--9--8--9--6--6--8--8--8--9--9--9--8--9--9--8--9--6--6--8--8--8--9--9--9-----------------9--9-----------------------------------9--9--------------------
D|-----------------------------------------------------------------------------------------------------------------------------------------------------------
A|-----------------------------------------------------------------------------------------------------------------------------------------------------------
E|-----------------------------------------------------------------------------------------------------------------------------------------------------------

Stave 5:

E|--------------------------------------------6--6-----6--7--7--11--11--------------------
B|--------------------------7--7-----7--9--9--------9-------------------------------------
G|--6--6--8--8--6--8--9--9--------9-------------------------------------6--6--8--8--6--8--
D|----------------------------------------------------------------------------------------
A|----------------------------------------------------------------------------------------
E|----------------------------------------------------------------------------------------

Stave 6:

E|--
B|--
G|--
D|--
A|--
E|--

http://www.guitartabcreator.com
Guitar Tab Creator is intended to store guitar tab created through the tool. It currently does not support in-line text editing. Any text you place in here will be lost. If you need to comment on your tab, please use the "Tab Notes" section located below.