Goth GF - Intro (Bass Tab)

01234567891011121314151617181920212223
E
B
G
D
A
E
B
0 1 2 3 4 5 6 7 8 9 10 11 12 13 14 15 16 17 18 19 20 21 22 23
(/) Slide Up  (\) Slide Down  (h) Hammer On  (p) Pull Off  (b) Bend (r) Release (v) Vibrato

Stave 1: 

G|--------------------------|--------------------------|--------------------------|--------------------------|:--
D|--------------------------|--------------------------|--------------------------|--------------------------|:--
A|--------------------------|--------------------------|--------------------------|--------------------------|:--
E|--5-----5--5-----5--5--5--|--5--7--7--7-----7--7--0--|--2-----2--2--2--5--5--0--|--2-----2--2--2--5--5--0--|:--

Stave 2:

G|--------------------------|--------------------------|--------------------------|-----------3--5--3--------|--
D|--------------------------|--------------------------|--------------------------|-----3--5-----------5--3--|--
A|--5-----5--5-----5--5--5--|--5--7--7--7-----7--7--0--|--3-----3--3-----3--3--3--|--3-----------------------|--
E|--------------------------|--------------------------|--------------------------|--------------------------|--

Stave 3:

G|--------------------------|--------------------------|--------------------------|--------------------------|:--
D|--------------------------|--------------------------|--------------------------|--------------------------|:--
A|--5-----5--5-----5--5--5--|--5--7--7--7-----7--7--0--|--3-----3--3-----3--3--3--|--------------------------|:--
E|--------------------------|--------------------------|--------------------------|--5--5--5--3-----3--3--3--|:--

Stave 4:

G|--------------------------|--------------------------|--------------------------|--------------------------|:--
D|--------------------------|--------------------------|--------------------------|--------------------------|:--
A|--3--3--3--3--3--3--3--3--|--3--3--3--3--3--3--3-----|--------------------------|--------------------------|:--
E|--------------------------|-----------------------0--|--2-----2--2--2--5--5--0--|--2-----2--2--2--5--5--0--|:--

Stave 5:

G|--------------------------|:--
D|--------------------------|:--
A|--------------------------|:--
E|--2-----0--0--0--5--5--0--|:--

							http://www.guitartabcreator.com
Chords

Instruments
{"strings":[[[".","_",".",".","_",".",".",".",null,null,null,"|",".",".",".",".","_",".",".",".",null,null,null,"|",".","_",".",".",".",".",".",".",null,null,null,"|",".","_",".",".",".",".",".",".","|:"],[".","_",".",".","_",".",".",".",null,null,"|",null,".",".",".",".","_",".",".",".",null,null,"|",null,".","_",".",".",".",".",".",".",null,null,"|",null,".","_",".",".",".",".",".",".","|:"],[".","_",".",".","_",".",".",".",null,"|",null,null,".",".",".",".","_",".",".",".",null,"|",null,null,".","_",".",".",".",".",".",".",null,"|",null,null,".","_",".",".",".",".",".",".","|:"],[5,"_",5,5,"_",5,5,5,"|",null,null,null,5,7,7,7,"_",7,7,0,"|",null,null,null,2,"_",2,2,2,5,5,0,"|",null,null,null,2,"_",2,2,2,5,5,0,"|:"]],[[".","_",".",".","_",".",".",".",null,null,null,"|",".",".",".",".","_",".",".",".",null,null,null,"|",".","_",".",".","_",".",".",".",null,null,null,"|",".",".",".",3,5,3,".",".",null,null,null,"|"],[".","_",".",".","_",".",".",".",null,null,"|",null,".",".",".",".","_",".",".",".",null,null,"|",null,".","_",".",".","_",".",".",".",null,null,"|",null,".",3,5,".",".",".",5,3,null,null,"|"],[5,"_",5,5,"_",5,5,5,null,"|",null,null,5,7,7,7,"_",7,7,0,null,"|",null,null,3,"_",3,3,"_",3,3,3,null,"|",null,null,3,".",".",".",".",".",".",".",null,"|"],[".","_",".",".","_",".",".",".","|",null,null,null,".",".",".",".","_",".",".",".","|",null,null,null,".","_",".",".","_",".",".",".","|",null,null,null,".",".",".",".",".",".",".",".","|"]],[[".","_",".",".","_",".",".",".",null,null,null,"|",".",".",".",".","_",".",".",".",null,null,null,"|",".","_",".",".","_",".",".",".",null,null,null,"|",".",".",".",".","_",".",".",".","|:"],[".","_",".",".","_",".",".",".",null,null,"|",null,".",".",".",".","_",".",".",".",null,null,"|",null,".","_",".",".","_",".",".",".",null,null,"|",null,".",".",".",".","_",".",".",".","|:"],[5,"_",5,5,"_",5,5,5,null,"|",null,null,5,7,7,7,"_",7,7,0,null,"|",null,null,3,"_",3,3,"_",3,3,3,null,"|",null,null,".",".",".",".","_",".",".",".","|:"],[".","_",".",".","_",".",".",".","|",null,null,null,".",".",".",".","_",".",".",".","|",null,null,null,".","_",".",".","_",".",".",".","|",null,null,null,5,5,5,3,"_",3,3,3,"|:"]],[[".",".",".",".",".",".",".",".",null,null,null,"|",".",".",".",".",".",".",".",".",null,null,null,"|",".","_",".",".",".",".",".",".",null,null,null,"|",".","_",".",".",".",".",".",".","|:"],[".",".",".",".",".",".",".",".",null,null,"|",null,".",".",".",".",".",".",".",".",null,null,"|",null,".","_",".",".",".",".",".",".",null,null,"|",null,".","_",".",".",".",".",".",".","|:"],[3,3,3,3,3,3,3,3,null,"|",null,null,3,3,3,3,3,3,3,".",null,"|",null,null,".","_",".",".",".",".",".",".",null,"|",null,null,".","_",".",".",".",".",".",".","|:"],[".",".",".",".",".",".",".",".","|",null,null,null,".",".",".",".",".",".",".",0,"|",null,null,null,2,"_",2,2,2,5,5,0,"|",null,null,null,2,"_",2,2,2,5,5,0,"|:"]],[[".","_",".",".",".",".",".",".","|:"],[".","_",".",".",".",".",".",".","|:"],[".","_",".",".",".",".",".",".","|:"],[2,"_",0,0,0,5,5,0,"|:"]]],"numberofstrings":4,"notes":["G","D","A","E"],"capo":0,"stringnotes":["G2","D2","A1","E1"],"comments":["Stave 1: ","Stave 2:","Stave 3:","Stave 4:","Stave 5:"],"timing":[["W","W","W","W","W","W","W","W",null,null,null,null,"W","W","W","W","W","W","W","W",null,null,null,null,"W","W","W","W","W","W","W","W",null,null,null,null,"W","W","W","W","W","W","W","W"],["W","W","W","W","W","W","W","W",null,null,null,null,"W","W","W","W","W","W","W","W",null,null,null,null,"W","W","W","W","W","W","W","W",null,null,null,null,"W","W","W","W","W","W","W","W"],["W","W","W","W","W","W","W","W",null,null,null,null,"W","W","W","W","W","W","W","W",null,null,null,null,"W","W","W","W","W","W","W","W",null,null,null,null,"W","W","W","W","W","W","W","W"],["W","W","W","W","W","W","W","W",null,null,null,null,"W","W","W","W","W","W","W","W",null,null,null,null,"W","W","W","W","W","W","W","W",null,null,null,null,"W","W","W","W","W","W","W","W"],["W","W","W","W","W","W","W","W"]],"timingvisible":false,"tabcounter":9,"stave":4,"totalstaves":5,"instrument":"4bass","selectedtuning":"4bass","version":"13"}

Member for

1 month 2 weeks
Submitted by handojones on Mon, 2021-10-11 15:30