Goth GF - Goth GF (bass tab)

01234567891011121314151617181920212223
E
B
G
D
A
E
B
0 1 2 3 4 5 6 7 8 9 10 11 12 13 14 15 16 17 18 19 20 21 22 23
(/) Slide Up  (\) Slide Down  (h) Hammer On  (p) Pull Off  (b) Bend (r) Release (v) Vibrato

Stave 1:

G|------------------------------------------------------|------------------------|-------------------------
D|-------------------------|-------------------------------|------------------------|-------------------------
A|-------------------------|-------------------------------|------------------------|-------------------------
E|--0-----0--0--5b---0--3--|-----0--3--5--5b---3--0--0-----|--0--0--12--12--12--11--|--11--11--11--11--11--6--

Stave 2:

G|-----------------------|--------------------------|--------------------------|--------------------------------|:--
D|-----------------------|--------------------------|--------------------------|--------------------------------|:--
A|-----------------------|--------------------------|--------------------------|-----2--2--2-----1-----1--1--1--|:--
E|--0--0--1--0--0--0--1--|--0--0--0--1--0--0--0--1--|--0--0--0--1--0--0--0--1--|--0-----------------------------|:--

Stave 3:

G|--------------------------|:--
D|--------------------------|:--
A|--------------------------|:--
E|--0-----0-----0-----0/12--|:--

Stave 4:

G|-------------------------|----------------------------|---------------------------------------|--
D|-------------------------|----------------------------|---------------------------------------|--
A|-------------------------|----------------------------|-----15--15--15-----14-----14--14--14--|--
E|--0--0--12--0--0--0--12--|--0--0--0--12--0--0--0--12--|--0------------------------------------|--

Stave 5:

G|-------------------------|----------------------------|--------------------------|--------------------------|:--
D|-------------------------|----------------------------|--------------------------|--------------------------|:--
A|-------------------------|----------------------------|--------------------------|--------------------------|:--
E|--0--0--12--0--0--0--12--|--0--0--0--11--0--0--0--11--|--0--0--0--9--0--0--0--9--|--0--0--0--8--0--0--0--8--|:--

Stave 6:

G|--------------------------|--
D|--------------------------|--
A|--------------------------|--
E|--0--0--7--0--0--0--7--0--|--

							http://www.guitartabcreator.com
Chords

Tab Notes
Stave 1: is main riff Stave 2: main riff fast part Stave 3: Chorus Stave 4: second fast part is stave 1 for 2 repeats then this is played once then stave 2 again Stave 5: third fast part - play stave 1 once then repeat stave 5- 4 times ^^^ The last time play stave 6 for the last 4 beats
Instruments
{"strings":[[[".","_",".",".",".",".","_",".",".",null,null,null,"_",".",".",".",".",".","_",".",".",".","_",null,null,null,"|",".",".",".",".",".",".",null,null,null,"|",".",".",".",".",".","."],[".","_",".",".",".",".","_",".",".",null,null,"|","_",".",".",".",".",".","_",".",".",".","_",null,null,"|",null,".",".",".",".",".",".",null,null,"|",null,".",".",".",".",".","."],[".","_",".",".",".",".","_",".",".",null,"|",null,"_",".",".",".",".",".","_",".",".",".","_",null,"|",null,null,".",".",".",".",".",".",null,"|",null,null,".",".",".",".",".","."],[0,"_",0,0,5,"b","_",0,3,"|",null,null,"_",0,3,5,5,"b","_",3,0,0,"_","|",null,null,null,0,0,12,12,12,11,"|",null,null,null,11,11,11,11,11,6]],[[".",".",".",".",".",".",".",null,null,null,"|",".",".",".",".",".",".",".",".",null,null,null,"|",".",".",".",".",".",".",".",".",null,null,null,"|",".",".",".",".","_",".","_",".",".",".","|:"],[".",".",".",".",".",".",".",null,null,"|",null,".",".",".",".",".",".",".",".",null,null,"|",null,".",".",".",".",".",".",".",".",null,null,"|",null,".",".",".",".","_",".","_",".",".",".","|:"],[".",".",".",".",".",".",".",null,"|",null,null,".",".",".",".",".",".",".",".",null,"|",null,null,".",".",".",".",".",".",".",".",null,"|",null,null,".",2,2,2,"_",1,"_",1,1,1,"|:"],[0,0,1,0,0,0,1,"|",null,null,null,0,0,0,1,0,0,0,1,"|",null,null,null,0,0,0,1,0,0,0,1,"|",null,null,null,0,".",".",".","_",".","_",".",".",".","|:"]],[[".","_",".","_",".","_",".",".",".","|:"],[".","_",".","_",".","_",".",".",".","|:"],[".","_",".","_",".","_",".",".",".","|:"],[0,"_",0,"_",0,"_",0,"/",12,"|:"]],[[".",".",".",".",".",".",".",null,null,null,"|",".",".",".",".",".",".",".",".",null,null,null,"|",".",".",".",".","_",".","_",".",".",".",null,null,null,"|"],[".",".",".",".",".",".",".",null,null,"|",null,".",".",".",".",".",".",".",".",null,null,"|",null,".",".",".",".","_",".","_",".",".",".",null,null,"|"],[".",".",".",".",".",".",".",null,"|",null,null,".",".",".",".",".",".",".",".",null,"|",null,null,".",15,15,15,"_",14,"_",14,14,14,null,"|"],[0,0,12,0,0,0,12,"|",null,null,null,0,0,0,12,0,0,0,12,"|",null,null,null,0,".",".",".","_",".","_",".",".",".","|"]],[[".",".",".",".",".",".",".",null,null,null,"|",".",".",".",".",".",".",".",".",null,null,null,"|",".",".",".",".",".",".",".",".",null,null,null,"|",".",".",".",".",".",".",".",".","|:"],[".",".",".",".",".",".",".",null,null,"|",null,".",".",".",".",".",".",".",".",null,null,"|",null,".",".",".",".",".",".",".",".",null,null,"|",null,".",".",".",".",".",".",".",".","|:"],[".",".",".",".",".",".",".",null,"|",null,null,".",".",".",".",".",".",".",".",null,"|",null,null,".",".",".",".",".",".",".",".",null,"|",null,null,".",".",".",".",".",".",".",".","|:"],[0,0,12,0,0,0,12,"|",null,null,null,0,0,0,11,0,0,0,11,"|",null,null,null,0,0,0,9,0,0,0,9,"|",null,null,null,0,0,0,8,0,0,0,8,"|:"]],[[".",".",".",".",".",".",".",".",null,null,null,"|"],[".",".",".",".",".",".",".",".",null,null,"|"],[".",".",".",".",".",".",".",".",null,"|"],[0,0,7,0,0,0,7,0,"|"]]],"numberofstrings":4,"notes":["G","D","A","E"],"capo":0,"stringnotes":["G2","D2","A1","E1"],"comments":["Stave 1:","Stave 2:","Stave 3:","Stave 4:","Stave 5:","Stave 6:"],"timing":[["W","W","W","W","W",null,"W","W","W",null,"W","W","W","W",null,"W","W","W","W","W",null,null,null,null,"W","W","W","W","W","W",null,null,null,null,"W","W","W","W","W","W","W","W"],["W","W","W","W","W","W","W",null,null,null,null,"W","W","W","W","W","W","W","W",null,null,null,null,"W","W","W","W","W","W","W","W",null,null,null,null,"W","W","W","W","W","W","W","W","W","W"],["W","W","W","W","W","W","W",null,"W"],["W","W","W","W","W","W","W",null,null,null,null,"W","W","W","W","W","W","W","W",null,null,null,null,"W","W","W","W","W","W","W","W","W","W"],["W","W","W","W","W","W","W",null,null,null,null,"W","W","W","W","W","W","W","W",null,null,null,null,"W","W","W","W","W","W","W","W",null,null,null,null,"W","W","W","W","W","W","W","W"],["W","W","W","W","W","W","W","W"]],"timingvisible":false,"tabcounter":12,"stave":5,"totalstaves":6,"instrument":"4bass","selectedtuning":"4bass","version":"13"}

Member for

1 month 2 weeks
Submitted by handojones on Mon, 2021-10-11 16:00