Sound will begin in 5 seconds

Do You Want to Build a Snowman?

Chords
01234567891011121314151617181920212223
E
B
G
D
A
E
B
0 1 2 3 4 5 6 7 8 9 10 11 12 13 14 15 16 17 18 19 20 21 22 23
Song Science #1: How Pros Use 6 Chords to Write Hit Songs
(/) Slide Up  (\) Slide Down  (h) Hammer On  (p) Pull Off  (b) Bend (r) Release (v) Vibrato

Stave 1:

E|--------------------------------------------------------------------------------------------------0--
B|--------1--------1--------------1--------1--------------1--------1--------------1--------1--------1--
G|-----0--------0--------0-----0--------0--------0-----0--------0--------0-----0--------0--------0--0--
D|--3--------2--------2-----3--------2--------2-----3--------2--------2-----3--------2--------2-----2--
A|--------------------------------------------------------------------------------------------------3--
E|-----------------------------------------------------------------------------------------------------

Stave 2:

E|-----------------0-----0--------------------------0--------------------------0--1p0-----------------0--
B|--1--1--1-----1-----3--------1--------1--1-----1-----3-----------1--1-----1----------1-----1-----1-----
G|-----------0--------0-----0-----------------0--------0-----0-----------0----------------0-----0--------
D|--------------------2-----------------------------------0----------------------------------------------
A|--------------------3--------------------------------2--------------------------0----------------------
E|-------------------------------------------------------------------------------------------------------

Stave 3:

E|--3--------0--3--3--1p0h1--3--------------0--------0-----------0--5-----2--
B|--3--3-----1---------------1--1--------3-----1-----0--3--1--3--------1--3--
G|--3-----3--0---------------2--------0--------0--0--1-----------------2--2--
D|--5--------2------------------------------------------------------------0--
A|--5--------3---------------------------2-----3--------------------0--------
E|--3------------------------1-----------------------0-----------------------

Stave 4:

E|-----------------0-----0-----------------------0--------------------------------------------------------
B|--1--1--1-----1-----3--------1--1--1--1-----1-----3--1--1-----1-----1--------1--------------1--------1--
G|-----------0--------2--------------------0--------1--1-----0--0-----------0--------0-----0--------0-----
D|--------------------0-----------------------------0--0-----------2-----3--------0-----2--------3--------
A|--------------------------------------------------------------3-----------------------------------------
E|--------------------------------------------------------------------------------------------------------

Stave 5:

E|--------------------------------------------------------
B|--------------1--------1--------------1--------1--------
G|-----0-----0--------0--------0-----0--------0--------0--
D|--0-----2--------3--------0-----2--------3--------0-----
A|--------------------------------------------------------
E|--------------------------------------------------------

Stave 6:

E|--------------------------------------------------------------------------------1-----4-----3--
B|--3--4--1--3--4--1-----------1--------1--------------1--------1--------3--4--3--1-----4-----3--
G|--0-----0--0-----0--------0--------0--------0-----0--------0--------0--2--------2-----5-----4--
D|--------------------0-----------3--------0-----2--------3--------0--------------3-----6-----5--
A|-----------------------3--------------------------------------------------------3-----6-----5--
E|--4-----3--4-----3-----------------------------------------------------1--------1-----4-----3--

Stave 7:

E|-----------------0-----0--0--0--0--------------------0-----------------------------------0--1p0--
B|--1--1--1-----1-----3--1--1--1--1-----1-----1-----1-----3--3--3--3--3--1--1--1--1-----1----------
G|-----------0--------0--------------0-----0-----0--------0--0--0--0--0--------------0-------------
D|--------------------2----------------------------------------------------------------------------
A|--------------------3--3--3--3--3-----3-----3-----3-----2--2--2--2--2-----2-----2-----2-----0----
E|-------------------------------------------------------------------------------------------------

Stave 8:

E|--------------0--1p0-----------------0--3--
B|--1--------1----------1-----1-----1-----3--
G|--------0----------------0-----0--------3--
D|----------------------------------------4--
A|--0--0-----0-----0----0-----0-----0-----4--
E|----------------------------------------3--

Stave 9:

E|--3--3--1p0h1--3-----------------0-----------0-----------0--5-----0--2--
B|---------------1--1--------1--3-----1-----1--0--3--1--3--------1-----3--
G|---------------2--------2-----0-----0--------1-----------------2-----2--
D|---------------------------------------------------------------------0--
A|------------------------------2-----3-----------------------0-----------
E|---------------1-----------------------------0--------------------------

Stave 10:

E|--4--------------------------1--------1-----------4--------------------------1--------1--------
B|--4--------------------------3--4--0--3--4--0-----4--------------------------3--4--0--3--4--0--
G|--5--------5--5-----------5--1--------1-----------5--------5--5-----------5--1--------1--------
D|--5--5--5-----------5--5-----3--------3-----------5--5--5-----------5--5-----3--------3--------
A|--6--------------------------3--------3-----------6--------------------------3--------3--------
E|--4--------------4-----------1--------1-----------4--------------4-----------1--------1--------

Stave 11:

E|--------------------------------------------------------------------------------------------------
B|--------1--------1--------------1--------1--------------1--------1--------------1--------1--------
G|-----0--------0--------0-----0--------0--------0-----0--------0--------0-----0--------0--------0--
D|--2--------3--------0-----2--------3--------0-----2--------3--------0-----2--------3--------0-----
A|--3-----------------------------------------------------------------------------------------------
E|--------------------------------------------------------------------------------------------------

Stave 12:

E|-----------------------------------------------------1--------------1-----------------------------
B|--------1--------1--------------1--------1-----------4--4--------4--3--3--------3--1--1--------1--
G|-----0--------0--------0-----0--------0--------0-----1--------1-----1--------1-----0--------0-----
D|--2--------3--------0-----2--------3--------0--------3-----3--------3-----3--------1-----1--------
A|-----------------------------------------------------3--------------3-----------------------------
E|-----------------------------------------------------1--------------1-----------------------------

Stave 13:

E|-----------------1--------------1--------------------------------------------------------------------
B|--0-----------0--4--4--------4--3--3--------3--1--1--------1-----3--4-----3--4--------3--4-----3--4--
G|--0--0-----0-----1--------1-----1--------1-----0--------0-----3--1-----0--------0-----1-----1--------
D|--0-----0--------3-----3--------3-----3--------1-----1--------1-----------------0--------------------
A|-----------------3--------------3-----------------------------------------------2--------------------
E|-----------------1--------------1--------------------------------1--------------3-----1--------------

Stave 14:

E|-----------------------3-----0--
B|--------4--3-----4--3--3-----1--
G|--5--------------------5-----0--
D|--6-----------5--------6-----2--
A|--6--------------------6-----3--
E|--4-----3--------------3--------

Stave 15:

E|-----------0-----0--------------------------0--------------------------------0--1p0-----------0--1p0--
B|--1-----1-----3-----------1--1--1--1-----1-----3-----3-----1--1--1--1-----1----------1-----1----------
G|--0--0--------0-----------------------0--------0-----0-----------------0----------------0-------------
D|--------------2-----------------------------------0---------------------------------------------------
A|--3-----------3--------------------------------2--------------------------------0----------------0----
E|------------------------------------------------------------------------------------------------------

Stave 16:

E|-----------0-----3--2--3-----3--3--1p0h1--3-----------------0-----0-----------0--5-----3--2--
B|--1-----1-----1--0--0--0------------------1--1--------1--3--1-----0--3--1--3--------1--3--3--
G|-----------------0--0--0------------------2--------2-----0--0-----1-----------------2--2--2--
D|-----------------2--2--2---------------------------------------------------------------0--0--
A|-----------------2--2--2---------------------------------2--3--------------------0-----------
E|-----------------0--0--0------------------1-----------------------0--------------------------

Stave 17:

E|-----------------0-----0--0--1-----------------0--------------------------0-----0--0-----0--0--
B|--1--1--1-----1-----3-----0--1--------1-----1-----3--1-----1--1-----1--0--1-----1--1-----1--1--
G|-----------0--------------0--2-----------0-----------------2--0-----------0-----2--2-----2--2--
D|--------------------------2--3-----------------------------3--0-----------2-----2--3-----2--3--
A|--------------------------2--3-----------------------------3--2-----------3-----0--3-----0--3--
E|--------------------------0--1-----------------------------1--3--------------------1--------1--

http://www.guitartabcreator.com
Guitar Tab Creator is intended to store guitar tab created through the tool. It currently does not support in-line text editing. Any text you place in here will be lost. If you need to comment on your tab, please use the "Tab Notes" section located below.