Sound will begin in 5 seconds

Don't Forget Your Roots (Solo)

Chords
01234567891011121314151617181920212223
E
B
G
D
A
E
B
0 1 2 3 4 5 6 7 8 9 10 11 12 13 14 15 16 17 18 19 20 21 22 23
Song Science #1: How Pros Use 6 Chords to Write Hit Songs
(/) Slide Up  (\) Slide Down  (h) Hammer On  (p) Pull Off  (b) Bend (r) Release (v) Vibrato

Stave 1:

E|----------8--10b12--12r10--8------
B|--8h10p8----------------------10--
G|----------------------------------
D|----------------------------------
A|----------------------------------
E|----------------------------------

Stave 2:

E|---------8------------------------------------
B|--8--10-----8h10p8----------------------------
G|--------------------9--7\5--7b9--9r7p5--------
D|----------------------------------------7--5--
A|----------------------------------------------
E|----------------------------------------------

Stave 3:

E|-----------------------------5/8--8--8h10--10p8---------------------------
B|------------------7-8--8--8----------------------10p8--8h10--10--10p8-----
G|--2/5--5--5--7/9--8/9--9--9--------------------------------------------9--
D|--------------------------------------------------------------------------
A|--------------------------------------------------------------------------
E|--------------------------------------------------------------------------

Stave 4:

E|----------------------------------------------------------------------------------------------
B|-----8--10--10h13p10--8-----8--10-------------------------------------------------8-----8--8--
G|--9----------------------9---------9h12p9--7--5--7--7/9--5h7p5----------5h7--7/9--9--9--9--9--
D|----------------------------------------------------------------7--5h7------------------------
A|----------------------------------------------------------------------------------------------
E|----------------------------------------------------------------------------------------------

Stave 5:

E|--8-10--10-8--8----------
B|--8/10--10\8--8-----6-8--
G|-----------------5--7/9--
D|-------------------------
A|-------------------------
E|-------------------------

http://www.guitartabcreator.com
Guitar Tab Creator is intended to store guitar tab created through the tool. It currently does not support in-line text editing. Any text you place in here will be lost. If you need to comment on your tab, please use the "Tab Notes" section located below.