Sound will begin in 5 seconds

Olives

Chords
01234567891011121314151617181920212223
E
B
G
D
A
E
B
0 1 2 3 4 5 6 7 8 9 10 11 12 13 14 15 16 17 18 19 20 21 22 23
(/) Slide Up  (\) Slide Down  (h) Hammer On  (p) Pull Off  (b) Bend (r) Release (v) Vibrato

Stave 1:

E|------------------------|--------------------|------------------------|--------------------|-----------------------
B|------------------------|--------------------|------------------------|--------------------|-----------------------
G|------------------------|--------------------|------------------------|--------------------|-----------------2-----
D|--6--7--9-----7--6h7p6--|--4--5--5--4--7--4--|--2--3--5-----3--2h3p2--|--0--2--2--0--2--0--|--0--2--2--0--2-----3--
A|--7--------7------------|--5--------5-----5--|--3--------3------------|--2--------2--2--2--|--1--------1-----------
E|------------------------|--------------------|------------------------|--------------------|-----------------------

Stave 2:

E|--------------------------------------|--------------------|--------------------|--------------------------
B|--------------------------------------|--------------------|--------------------|--------------------2-----
G|-----------------9----------5--7h8p7--|-----------5--------|--0--2--2--0--2--0--|--0--2--2--0--2--0-----3--
D|-----6--7--9--9-----9--4h5------------|--2--3--5-----5--2--|--2--2--2--2--2--2--|--1--1--1--1--1--1--------
A|--------------------------------------|--------------------|--------------------|--------------------------
E|--------------------------------------|--------------------|--------------------|--------------------------

Stave 3:

E|------------|-----------|-----------|-----------|-----------|-----------|--
B|------------|-----------|-----------|-----------|-----------|-----------|--
G|------------|-----------|-----------|-----------|-----------|-----------|--
D|---6--------|--6--------|--4--------|--4--------|--2--------|--2--------|--
A|---7--------|--7--------|--5--------|--5--------|--3--------|--3--------|--
E|--r0--------|-----------|-----------|-----------|-----------|-----------|--

http://www.guitartabcreator.com
Guitar Tab Creator is intended to store guitar tab created through the tool. It currently does not support in-line text editing. Any text you place in here will be lost. If you need to comment on your tab, please use the "Tab Notes" section located below.