spider man ps4 theme

01234567891011121314151617181920212223
E
B
G
D
A
E
B
0 1 2 3 4 5 6 7 8 9 10 11 12 13 14 15 16 17 18 19 20 21 22 23
(/) Slide Up  (\) Slide Down  (h) Hammer On  (p) Pull Off  (b) Bend (r) Release (v) Vibrato

Stave 1:

E|-----------------------------------------------------------------------------------------------
B|-----------------------------------------------------------------------------------------------
G|--8--7--5-----5--7--8--7--5-----5--7--8-----------------5--------------8--7-----------------5--
D|-----------5-----------------5--------------5--8--7--5-----5--8--7--5-----------5--8--7--5-----
A|-----------------------------------------------------------------------------------------------
E|-----------------------------------------------------------------------------------------------

Stave 2:

E|------------------------------------------------------------------------
B|------------------------------------------------------------13--16--15--
G|--5--7--8--13--12--10--15--14--12--------17--15--14--12-----------------
D|------------------------------------------------------------------------
A|------------------------------------------------------------------------
E|------------------------------------------------------------------------

Stave 3:

E|------------------13----------------------------13--16--15--
B|--13--16--15--13---------13--16--15--13--16-----------------
G|------------------------------------------------------------
D|------------------------------------------------------------
A|------------------------------------------------------------
E|------------------------------------------------------------

							http://www.guitartabcreator.com
Chords

Instruments
{"strings":[[[".",".",".",".",".",".",".",".",".",".",".",".",".","_",".",".",".",".",".",".",".",".",".",".",".","_",".",".",".",".","."],[".",".",".",".",".",".",".",".",".",".",".",".",".","_",".",".",".",".",".",".",".",".",".",".",".","_",".",".",".",".","."],[8,7,5,".",5,7,8,7,5,".",5,7,8,"_",".",".",".",".",5,".",".",".",".",8,7,"_",".",".",".",".",5],[".",".",".",5,".",".",".",".",".",5,".",".",".","_",5,8,7,5,".",5,8,7,5,".",".","_",5,8,7,5,"."],[".",".",".",".",".",".",".",".",".",".",".",".",".","_",".",".",".",".",".",".",".",".",".",".",".","_",".",".",".",".","."],[".",".",".",".",".",".",".",".",".",".",".",".",".","_",".",".",".",".",".",".",".",".",".",".",".","_",".",".",".",".","."]],[[".",".",".",".",".",".",".",".",".","_","_",".",".",".",".","_",".",".","."],[".",".",".",".",".",".",".",".",".","_","_",".",".",".",".","_",13,16,15],[5,7,8,13,12,10,15,14,12,"_","_",17,15,14,12,"_",".",".","."],[".",".",".",".",".",".",".",".",".","_","_",".",".",".",".","_",".",".","."],[".",".",".",".",".",".",".",".",".","_","_",".",".",".",".","_",".",".","."],[".",".",".",".",".",".",".",".",".","_","_",".",".",".",".","_",".",".","."]],[[".",".",".",".",13,"_",".",".",".",".",".","_",13,16,15],[13,16,15,13,".","_",13,16,15,13,16,"_",".",".","."],[".",".",".",".",".","_",".",".",".",".",".","_",".",".","."],[".",".",".",".",".","_",".",".",".",".",".","_",".",".","."],[".",".",".",".",".","_",".",".",".",".",".","_",".",".","."],[".",".",".",".",".","_",".",".",".",".",".","_",".",".","."]]],"numberofstrings":6,"notes":["E","B","G","D","A","E","B"],"capo":0,"stringnotes":["E4","B3","G3","D3","A2","E2"],"comments":["Stave 1:","Stave 2:","Stave 3:"],"timing":[["W","W","W","W","W","W","W","W","W","W","W","W","W",null,"W","W","W","W","W","W","W","W","W","W","W",null,"W","W","W","W","W"],["W","W","W","W","W","W","W","W","W",null,null,"W","W","W","W",null,"W","W","W"],["W","W","W","W","W",null,"W","W","W","W","W",null,"W","W","W"]],"timingvisible":false,"tabcounter":15,"stave":2,"totalstaves":3,"instrument":"6guitar","selectedtuning":"6_standard","version":"13"}

Member for

11 months 2 weeks
Submitted by Halec on Sun, 2021-03-07 14:00