song 1

01234567891011121314151617181920212223
E
B
G
D
A
E
B
0 1 2 3 4 5 6 7 8 9 10 11 12 13 14 15 16 17 18 19 20 21 22 23
(/) Slide Up  (\) Slide Down  (h) Hammer On  (p) Pull Off  (b) Bend (r) Release (v) Vibrato

Stave 1:

E|-------------------------------------------------------------------------
B|--8--8--8--8--8----------------------------------------------------------
G|-----------------9/12\7--------------------4-----------------------------
D|--9--9--9--9--9----------7--5-----------7---------------7------9--10--9--
A|--7--7--7--7--7----------------------5--------7--10--9-----10------------
E|----------------------------------3--------------------------------------

Stave 2:

E|---------------------------------------------
B|---------------------------------------------
G|-----7--9--9/14--12-----7--------------------
D|--9------------------------9--7\5--7/9--7\5--
A|---------------------------------------------
E|---------------------------------------------

Stave 3:

E|--------------------------------------------------------------
B|--------------------------------------------------------------
G|--------------------4--7--------------------------------------
D|--------5--7--------------5--7/9--7--9/10--9--10/12--17--16v--
A|--------------5--7--------------------------------------------
E|--5--7--------------------------------------------------------

Stave 4:

E|--17p12-------------------------------------------------------10--
B|---------15---------------------------------------------------12--
G|-------------14--12\11----------------------------------------12--
D|------------------------12------------------14/16-------------12--
A|----------------------------12----------12---------14--12\10--10--
E|--------------------------------14--10------------------------x---

Stave 5:

E|--10--10/12--12\7--7/10--10\5--5/17--17p12--------------
B|--------------------------------------------15----------
G|------------------------------------------------14--12--
D|--------------------------------------------------------
A|--------------------------------------------------------
E|--------------------------------------------------------

							http://www.guitartabcreator.com
Chords

Instruments
{"strings":[[[".",".",".",".",".",".",".",".",".",".",".",".","_",".",".",".",".",".",".",".",".",".",".",".","."],[8,8,8,8,8,".",".",".",".",".",".",".","_",".",".",".",".",".",".",".",".",".",".",".","."],[".",".",".",".",".",9,"/",12,"\\",7,".",".","_",".",".",".",4,".",".",".",".",".",".",".","."],[9,9,9,9,9,".",".",".",".",".",7,5,"_",".",".",7,".",".",".",".",7,".",9,10,9],[7,7,7,7,7,".",".",".",".",".",".",".","_",".",5,".",".",7,10,9,".",10,".",".","."],[".",".",".",".",".",".",".",".",".",".",".",".","_",3,".",".",".",".",".",".",".",".",".",".","."]],[[".",".",".",".",".",".",".","_",".",".",".",".",".",".",".",".",".",".","."],[".",".",".",".",".",".",".","_",".",".",".",".",".",".",".",".",".",".","."],[".",7,9,9,"/",14,12,"_",7,".",".",".",".",".",".",".",".",".","."],[9,".",".",".",".",".",".","_",".",9,7,"\\",5,7,"/",9,7,"\\",5],[".",".",".",".",".",".",".","_",".",".",".",".",".",".",".",".",".",".","."],[".",".",".",".",".",".",".","_",".",".",".",".",".",".",".",".",".",".","."]],[[".",".",".",".",".",".",".",".",".",".",".",".",".",".",".",".",".",".",".",".",".",".","."],[".",".",".",".",".",".",".",".",".",".",".",".",".",".",".",".",".",".",".",".",".",".","."],[".",".",".",".",".",".",4,7,".",".",".",".",".",".",".",".",".",".",".",".",".",".","."],[".",".",5,7,".",".",".",".",5,7,"/",9,7,9,"/",10,9,10,"/",12,17,16,"v"],[".",".",".",".",5,7,".",".",".",".",".",".",".",".",".",".",".",".",".",".",".",".","."],[5,7,".",".",".",".",".",".",".",".",".",".",".",".",".",".",".",".",".",".",".",".","."]],[[17,"p",12,".",".",".",".",".",".",".",".",".",".",".",".",".",".",".",".",".",10],[".",".",".",15,".",".",".",".",".",".",".",".",".",".",".",".",".",".",".",".",12],[".",".",".",".",14,12,"\\",11,".",".",".",".",".",".",".",".",".",".",".",".",12],[".",".",".",".",".",".",".",".",12,".",".",".",".",14,"/",16,".",".",".",".",12],[".",".",".",".",".",".",".",".",".",12,".",".",12,".",".",".",14,12,"\\",10,10],[".",".",".",".",".",".",".",".",".",".",14,10,".",".",".",".",".",".",".",".","x10"]],[[10,10,"/",12,12,"\\",7,7,"/",10,10,"\\",5,5,"/",17,17,"p",12,".",".","."],[".",".",".",".",".",".",".",".",".",".",".",".",".",".",".",".",".",".",".",15,".","."],[".",".",".",".",".",".",".",".",".",".",".",".",".",".",".",".",".",".",".",".",14,12],[".",".",".",".",".",".",".",".",".",".",".",".",".",".",".",".",".",".",".",".",".","."],[".",".",".",".",".",".",".",".",".",".",".",".",".",".",".",".",".",".",".",".",".","."],[".",".",".",".",".",".",".",".",".",".",".",".",".",".",".",".",".",".",".",".",".","."]]],"numberofstrings":6,"notes":["E","B","G","D","A","E","B"],"capo":0,"stringnotes":["E4","B3","G3","D3","A2","E2"],"comments":["Stave 1:","Stave 2:","Stave 3:","Stave 4:","Stave 5:"],"timing":[["W","W","W","W","W","W",null,"W",null,"W","W","W",null,"W","W","W","W","W","W","W","W","W","W","W","W"],["W","W","W","W",null,"W","W",null,"W","W","W",null,"W","W",null,"W","W",null,"W",null,null,"W"],["W","W","W","W","W","W","W","W","W","W",null,"W","W","W",null,"W","W","W",null,"W","W","W"],["W",null,"W","W","W","W",null,"W","W","W","W","W","W","W",null,"W","W","W",null,"W","W","W"],["W","W",null,"W","W",null,"W","W",null,"W","W",null,"W","W",null,"W","W",null,"W","W","W","W"]],"timingvisible":false,"tabcounter":22,"stave":4,"totalstaves":5,"instrument":"6guitar","selectedtuning":"6_standard","version":"13"}

Member for

8 months 3 weeks
Submitted by Halec on Mon, 2020-04-27 13:03