paperhouse

01234567891011121314151617181920212223
E
B
G
D
A
E
B
0 1 2 3 4 5 6 7 8 9 10 11 12 13 14 15 16 17 18 19 20 21 22 23
(/) Slide Up  (\) Slide Down  (h) Hammer On  (p) Pull Off  (b) Bend (r) Release (v) Vibrato

Stave 1:

E|--7--5--5--4--
B|--5--5--5--5--
G|--5--5--4--4--
D|--------------
A|--------------
E|--------------

Stave 2:

E|--10--12--12--12--10--12-----10--12--12--12--9--10--9--10--10--10--9--9-----9--7--7-----7--5--5--------------------------
B|----------------------------------------------------------------------------------------------------8--7--7-----7--5--5--
G|-------------------------------------------------------------------------------------------------------------------------
D|-------------------------------------------------------------------------------------------------------------------------
A|-------------------------------------------------------------------------------------------------------------------------
E|-------------------------------------------------------------------------------------------------------------------------

							http://www.guitartabcreator.com
Chords

Instruments
{"strings":[[[7,5,5,4],[5,5,5,5],[5,5,4,4],[".",".",".","."],[".",".",".","."],[".",".",".","."]],[[10,12,12,12,10,12,"_",10,12,12,12,9,10,9,10,10,10,9,9,"_",9,7,7,"_",7,5,5,"_",".",".",".","_",".",".","."],[".",".",".",".",".",".","_",".",".",".",".",".",".",".",".",".",".",".",".","_",".",".",".","_",".",".",".","_",8,7,7,"_",7,5,5],[".",".",".",".",".",".","_",".",".",".",".",".",".",".",".",".",".",".",".","_",".",".",".","_",".",".",".","_",".",".",".","_",".",".","."],[".",".",".",".",".",".","_",".",".",".",".",".",".",".",".",".",".",".",".","_",".",".",".","_",".",".",".","_",".",".",".","_",".",".","."],[".",".",".",".",".",".","_",".",".",".",".",".",".",".",".",".",".",".",".","_",".",".",".","_",".",".",".","_",".",".",".","_",".",".","."],[".",".",".",".",".",".","_",".",".",".",".",".",".",".",".",".",".",".",".","_",".",".",".","_",".",".",".","_",".",".",".","_",".",".","."]]],"numberofstrings":6,"notes":["E","B","G","D","A","E","B"],"capo":0,"stringnotes":["E4","B3","G3","D3","A2","E2"],"comments":["Stave 1:","Stave 2:"],"timing":[["W","W","W","W"],["W","W","W","W","W","W",null,"W","W","W","W","W","W","W","W","W","W","W","W",null,"W","W","W","W","W","W","W",null,"W","W","W",null,"W","W","W"]],"timingvisible":false,"tabcounter":35,"stave":1,"totalstaves":2,"instrument":"6guitar","selectedtuning":"6_standard","version":"13"}

Member for

8 months 3 weeks
Submitted by Halec on Wed, 2020-11-04 18:06