my fast song

Chords

01234567891011121314151617181920212223
E
B
G
D
A
E
B
0 1 2 3 4 5 6 7 8 9 10 11 12 13 14 15 16 17 18 19 20 21 22 23
(/) Slide Up  (\) Slide Down  (h) Hammer On  (p) Pull Off  (b) Bend (r) Release (v) Vibrato

Stave 1:

E|--19--15--------------15--19--15--------------15--19--15------15-----20--15--------------15--20--15--------------15--20------
B|----------17--16--17--------------17--16--17--------------17-----------------17--16--17--------------17--16--17----------17--
G|-----------------------------------------------------------------------------------------------------------------------------
D|-----------------------------------------------------------------------------------------------------------------------------
A|-----------------------------------------------------------------------------------------------------------------------------
E|-----------------------------------------------------------------------------------------------------------------------------
B|-----------------------------------------------------------------------------------------------------------------------------

Stave 2:

E|--17--12--------------12--17--12--------------12--17--12----------15--12--------------12--15--12--------------12--15--
B|----------13--12--13--------------13--12--13--------------13--12----------13--12--13--------------13--12--13----------
G|----------------------------------------------------------------------------------------------------------------------
D|----------------------------------------------------------------------------------------------------------------------
A|----------------------------------------------------------------------------------------------------------------------
E|----------------------------------------------------------------------------------------------------------------------
B|----------------------------------------------------------------------------------------------------------------------

Stave 3:

E|----------------------------------------------------------------------------------------------------------------------
B|--19--15--------------15--19--15--------------15--19--15------15--20--15--------------15--20--15--------------15--20--
G|----------17--16--17--------------17--16--17--------------17--------------17--16--17--------------17--16--17----------
D|----------------------------------------------------------------------------------------------------------------------
A|----------------------------------------------------------------------------------------------------------------------
E|----------------------------------------------------------------------------------------------------------------------
B|----------------------------------------------------------------------------------------------------------------------

Stave 4:

E|------------------------------------------------------------------------------------------------------
B|--17--12--------------12--16--12--------------12--15--12--------------12--15--12--------------12--15--
G|----------13------13--------------13------13--------------13--12--13--------------13--12--13----------
D|--------------14----------------------14--------------------------------------------------------------
A|------------------------------------------------------------------------------------------------------
E|------------------------------------------------------------------------------------------------------
B|------------------------------------------------------------------------------------------------------

							http://www.guitartabcreator.com
Instruments
{"strings":[[[19,15,".",".",".",15,19,15,".",".",".",15,19,15,".",15,"_",20,15,".",".",".",15,20,15,".",".",".",15,20,"."],[".",".",17,16,17,".",".",".",17,16,17,".",".",".",17,".","_",".",".",17,16,17,".",".",".",17,16,17,".",".",17],[".",".",".",".",".",".",".",".",".",".",".",".",".",".",".",".","_",".",".",".",".",".",".",".",".",".",".",".",".",".","."],[".",".",".",".",".",".",".",".",".",".",".",".",".",".",".",".","_",".",".",".",".",".",".",".",".",".",".",".",".",".","."],[".",".",".",".",".",".",".",".",".",".",".",".",".",".",".",".","_",".",".",".",".",".",".",".",".",".",".",".",".",".","."],[".",".",".",".",".",".",".",".",".",".",".",".",".",".",".",".","_",".",".",".",".",".",".",".",".",".",".",".",".",".","."],[".",".",".",".",".",".",".",".",".",".",".",".",".",".",".",".","_",".",".",".",".",".",".",".",".",".",".",".",".",".","."]],[[17,12,".",".",".",12,17,12,".",".",".",12,17,12,".",".",15,12,".",".",".",12,15,12,".",".",".",12,15],[".",".",13,12,13,".",".",".",13,12,13,".",".",".",13,12,".",".",13,12,13,".",".",".",13,12,13,".","."],[".",".",".",".",".",".",".",".",".",".",".",".",".",".",".",".",".",".",".",".",".",".",".",".",".",".",".",".","."],[".",".",".",".",".",".",".",".",".",".",".",".",".",".",".",".",".",".",".",".",".",".",".",".",".",".",".",".","."],[".",".",".",".",".",".",".",".",".",".",".",".",".",".",".",".",".",".",".",".",".",".",".",".",".",".",".",".","."],[".",".",".",".",".",".",".",".",".",".",".",".",".",".",".",".",".",".",".",".",".",".",".",".",".",".",".",".","."],[".",".",".",".",".",".",".",".",".",".",".",".",".",".",".",".",".",".",".",".",".",".",".",".",".",".",".",".","."]],[[".",".",".",".",".",".",".",".",".",".",".",".",".",".",".",".",".",".",".",".",".",".",".",".",".",".",".",".","."],[19,15,".",".",".",15,19,15,".",".",".",15,19,15,".",15,20,15,".",".",".",15,20,15,".",".",".",15,20],[".",".",17,16,17,".",".",".",17,16,17,".",".",".",17,".",".",".",17,16,17,".",".",".",17,16,17,".","."],[".",".",".",".",".",".",".",".",".",".",".",".",".",".",".",".",".",".",".",".",".",".",".",".",".",".",".",".","."],[".",".",".",".",".",".",".",".",".",".",".",".",".",".",".",".",".",".",".",".",".",".",".",".",".",".",".",".","."],[".",".",".",".",".",".",".",".",".",".",".",".",".",".",".",".",".",".",".",".",".",".",".",".",".",".",".",".","."],[".",".",".",".",".",".",".",".",".",".",".",".",".",".",".",".",".",".",".",".",".",".",".",".",".",".",".",".","."]],[[".",".",".",".",".",".",".",".",".",".",".",".",".",".",".",".",".",".",".",".",".",".",".",".","."],[17,12,".",".",".",12,16,12,".",".",".",12,15,12,".",".",".",12,15,12,".",".",".",12,15],[".",".",13,".",13,".",".",".",13,".",13,".",".",".",13,12,13,".",".",".",13,12,13,".","."],[".",".",".",14,".",".",".",".",".",14,".",".",".",".",".",".",".",".",".",".",".",".",".",".","."],[".",".",".",".",".",".",".",".",".",".",".",".",".",".",".",".",".",".",".",".",".",".",".",".","."],[".",".",".",".",".",".",".",".",".",".",".",".",".",".",".",".",".",".",".",".",".",".",".",".","."],[".",".",".",".",".",".",".",".",".",".",".",".",".",".",".",".",".",".",".",".",".",".",".",".","."]]],"numberofstrings":7,"notes":["E","B","G","D","A","E","B"],"capo":0,"stringnotes":["E3","B2","G2","D2","A1","E1","B0"],"comments":["Stave 1:","Stave 2:","Stave 3:","Stave 4:"],"timing":[["W","W","W","W","W","W","W","W","W","W","W","W","W","W","W","W",null,"W","W","W","W","W","W","W","W","W","W","W","W","W","W"],["W","W","W","W","W","W","W","W","W","W","W","W","W","W","W","W","W","W","W","W","W","W","W","W","W","W","W","W","W"],["W","W","W","W","W","W","W","W","W","W","W","W","W","W","W","W","W","W","W","W","W","W","W","W","W","W","W","W","W","W"],["W","W","W","W","W","W","W","W","W","W","W","W","W","W","W","W","W","W","W","W","W","W","W","W","W"]],"timingvisible":false,"tabcounter":25,"stave":3,"totalstaves":4,"instrument":"7guitar","selectedtuning":"7guitar","version":"13"}

Member for

6 months 2 weeks
Submitted by Halec on Mon, 2020-10-26 23:27