monster

Chords

01234567891011121314151617181920212223
E
B
G
D
A
E
B
0 1 2 3 4 5 6 7 8 9 10 11 12 13 14 15 16 17 18 19 20 21 22 23
(/) Slide Up  (\) Slide Down  (h) Hammer On  (p) Pull Off  (b) Bend (r) Release (v) Vibrato

Stave 1:

E|---------------------------------------------------------------------------------------------------------
B|--15--17--15--13--10--8--6-----15--17--15--13--10--8--10-------------------------------------------------
G|----------------------------------------------------------------7--10--9--7------------------------------
D|-------------------------------------------------------------7---------------10--8--7--5--3--0--3--5--7--
A|---------------------------------------------------------------------------------------------------------
E|---------------------------------------------------------------------------------------------------------

Stave 2:

E|-----------------------------------------------
B|-----------------------------------------------
G|-----------------------------------------------
D|-----3--5--7--3--5--7--------3--5--7--3--5--7--
A|--5-----------------------3--------------------
E|-----------------------------------------------

Stave 3:

E|-------------------------------------------------------------------------------
B|------8--10------8--10--10/13--11--10\8--10\8---------13--15-------------------
G|--10---------10-----------------------------------10----------12--10--7--5--7--
D|-------------------------------------------------------------------------------
A|-------------------------------------------------------------------------------
E|-------------------------------------------------------------------------------

Stave 4:

E|---------------------------------------------------------
B|--10------13/15------------------------------------------
G|------12---------14--12--10--------------10--------------
D|-----------------------------12--10--12------12--10--12--
A|---------------------------------------------------------
E|---------------------------------------------------------

							http://www.guitartabcreator.com
Instruments
{"strings":[[[".",".",".",".",".",".",".","_",".",".",".",".",".",".",".","_",".",".",".",".",".",".",".",".",".",".",".",".",".","."],[15,17,15,13,10,8,6,"_",15,17,15,13,10,8,10,"_",".",".",".",".",".",".",".",".",".",".",".",".",".","."],[".",".",".",".",".",".",".","_",".",".",".",".",".",".",".","_",".",7,10,9,7,".",".",".",".",".",".",".",".","."],[".",".",".",".",".",".",".","_",".",".",".",".",".",".",".","_",7,".",".",".",".",10,8,7,5,3,0,3,5,7],[".",".",".",".",".",".",".","_",".",".",".",".",".",".",".","_",".",".",".",".",".",".",".",".",".",".",".",".",".","."],[".",".",".",".",".",".",".","_",".",".",".",".",".",".",".","_",".",".",".",".",".",".",".",".",".",".",".",".",".","."]],[[".",".",".",".",".",".",".","_",".",".",".",".",".",".","."],[".",".",".",".",".",".",".","_",".",".",".",".",".",".","."],[".",".",".",".",".",".",".","_",".",".",".",".",".",".","."],[".",3,5,7,3,5,7,"_",".",3,5,7,3,5,7],[5,".",".",".",".",".",".","_",3,".",".",".",".",".","."],[".",".",".",".",".",".",".","_",".",".",".",".",".",".","."]],[[".",".",".",".",".",".",".",".",".",".",".",".",".",".",".",".","_",".",".",".",".",".",".",".","."],[".",8,10,".",8,10,10,"/",13,11,10,"\\",8,10,"\\",8,"_",".",13,15,".",".",".",".","."],[10,".",".",10,".",".",".",".",".",".",".",".",".",".",".",".","_",10,".",".",12,10,7,5,7],[".",".",".",".",".",".",".",".",".",".",".",".",".",".",".",".","_",".",".",".",".",".",".",".","."],[".",".",".",".",".",".",".",".",".",".",".",".",".",".",".",".","_",".",".",".",".",".",".",".","."],[".",".",".",".",".",".",".",".",".",".",".",".",".",".",".",".","_",".",".",".",".",".",".",".","."]],[[".",".",".",".",".",".",".",".",".",".",".",".",".",".","."],[10,".",13,"/",15,".",".",".",".",".",".",".",".",".","."],[".",12,".",".",".",14,12,10,".",".",".",10,".",".","."],[".",".",".",".",".",".",".",".",12,10,12,".",12,10,12],[".",".",".",".",".",".",".",".",".",".",".",".",".",".","."],[".",".",".",".",".",".",".",".",".",".",".",".",".",".","."]]],"numberofstrings":6,"notes":["E","B","G","D","A","E","B"],"capo":0,"stringnotes":["E4","B3","G3","D3","A2","E2"],"comments":["Stave 1:","Stave 2:","Stave 3:","Stave 4:"],"timing":[["W","W","W","W","W","W","W",null,"W","W","W","W","W","W","W",null,"W","W","W","W","W","W","W","W","W","W","W","W","W","W"],["W","W","W","W","W","W","W",null,"W","W","W","W","W","W","W"],["W","W","W","W","W","W","W",null,"W","W","W",null,"W","W",null,"W",null,"W","W","W","W","W","W","W","W"],["W","W","W",null,"W","W","W","W","W","W","W","W","W","W","W"]],"timingvisible":false,"tabcounter":15,"stave":3,"totalstaves":4,"instrument":"6guitar","selectedtuning":"6_standard","version":"13"}

Member for

7 months
Submitted by Halec on Sat, 2020-11-21 15:27