mandelorian

01234567891011121314151617181920212223
E
B
G
D
A
E
B
0 1 2 3 4 5 6 7 8 9 10 11 12 13 14 15 16 17 18 19 20 21 22 23
(/) Slide Up  (\) Slide Down  (h) Hammer On  (p) Pull Off  (b) Bend (r) Release (v) Vibrato

Stave 1:

E|--------------------------------------------------------------------------------------------
B|--------------------------------------------------------------------------------------------
G|-----7-----7-----7-----7-----------6-----6-----6-----6-----------3-----3-----3-----3--------
D|--5-----5-----5-----5-----5-----5-----5-----5-----5-----5-----5-----5-----5-----5-----5-----
A|--------------------------------------------------------------------------------------------
E|--------------------------------------------------------------------------------------------

Stave 2:

E|--------------------------------------------------------------------------
B|-----------------------------------6--------9--------8--------6--------6--
G|-----5-----5-----5-----5-----------7--------7--------7--------5--------3--
D|--5-----5-----5-----5-----5-----5--------5--------5--------5--------5-----
A|--------------------------------------------------------------------------
E|--------------------------------------------------------------------------

							http://www.guitartabcreator.com
Chords

Instruments
{"strings":[[[".",".",".",".",".",".",".",".",".","_",".",".",".",".",".",".",".",".",".","_",".",".",".",".",".",".",".",".",".","_"],[".",".",".",".",".",".",".",".",".","_",".",".",".",".",".",".",".",".",".","_",".",".",".",".",".",".",".",".",".","_"],[".",7,".",7,".",7,".",7,".","_",".",6,".",6,".",6,".",6,".","_",".",3,".",3,".",3,".",3,".","_"],[5,".",5,".",5,".",5,".",5,"_",5,".",5,".",5,".",5,".",5,"_",5,".",5,".",5,".",5,".",5,"_"],[".",".",".",".",".",".",".",".",".","_",".",".",".",".",".",".",".",".",".","_",".",".",".",".",".",".",".",".",".","_"],[".",".",".",".",".",".",".",".",".","_",".",".",".",".",".",".",".",".",".","_",".",".",".",".",".",".",".",".",".","_"]],[[".",".",".",".",".",".",".",".",".","_",".","_","_",".",".","_",".",".","_",".",".","_",".","."],[".",".",".",".",".",".",".",".",".","_",".",6,"_",".",9,"_",".",8,"_",".",6,"_",".",6],[".",5,".",5,".",5,".",5,".","_",".",7,"_",".",7,"_",".",7,"_",".",5,"_",".",3],[5,".",5,".",5,".",5,".",5,"_",5,"_","_",5,".","_",5,".","_",5,".","_",5,"."],[".",".",".",".",".",".",".",".",".","_",".","_","_",".",".","_",".",".","_",".",".","_",".","."],[".",".",".",".",".",".",".",".",".","_",".","_","_",".",".","_",".",".","_",".",".","_",".","."]]],"numberofstrings":6,"notes":["E","B","G","D","A","E","B"],"capo":0,"stringnotes":["E4","B3","G3","D3","A2","E2"],"comments":["Stave 1:","Stave 2:"],"timing":[["W","W","W","W","W","W","W","W","W",null,"W","W","W","W","W","W","W","W","W",null,"W","W","W","W","W","W","W","W","W"],["W","W","W","W","W","W","W","W","W",null,"W","W","W","W","W",null,"W","W","W","W","W",null,"W","W"]],"timingvisible":false,"tabcounter":23,"stave":1,"totalstaves":2,"instrument":"6guitar","selectedtuning":"6_standard","version":"13"}

Member for

10 months 1 week
Submitted by Halec on Wed, 2020-12-09 16:59