longseason

01234567891011121314151617181920212223
E
B
G
D
A
E
B
0 1 2 3 4 5 6 7 8 9 10 11 12 13 14 15 16 17 18 19 20 21 22 23
(/) Slide Up  (\) Slide Down  (h) Hammer On  (p) Pull Off  (b) Bend (r) Release (v) Vibrato

Stave 1:

E|-----------------------------------------------------------------------------------------
B|-----------------------------------8-----------------------------8--8--8--8--8--8--9-----
G|--------5--7--7--7--------5--7--7-----7--5-----5-----------------------------------------
D|--7--7-----------------7--------------------7--------5--7--------------------------------
A|--------------------------------------------------7--------------------------------------
E|-----------------------------------------------------------------------------------------

Stave 2:

E|-----8--8--8--5--------5--8--10--8------------5--------
B|--8-----------------8---------------10-----8-----8-----
G|-------------------------------------------------------
D|-------------------------------------------------------
A|-------------------------------------------------------
E|-------------------------------------------------------

Stave 3:

E|--------5-----5--8--10--10--8--5-----5--8--10--10--10--10--10--8--5--7--8--10--8--7--8--8--
B|--5--8-------------------------------------------------------------------------------------
G|-------------------------------------------------------------------------------------------
D|-------------------------------------------------------------------------------------------
A|-------------------------------------------------------------------------------------------
E|-------------------------------------------------------------------------------------------

Stave 4:

E|--3--5--3--12--12--12--12--12--15--15--15--15--12--12--12--12--15--15--15--15--
B|-------------------------------------------------------------------------------
G|-------------------------------------------------------------------------------
D|-------------------------------------------------------------------------------
A|-------------------------------------------------------------------------------
E|-------------------------------------------------------------------------------

Stave 5:

E|--17--18--20-----------8--9--8--8--9------------------20--20--20--20--
B|----------------------------------------------------------------------
G|--------------------------------------17--17--17--17------------------
D|----------------------------------------------------------------------
A|----------------------------------------------------------------------
E|----------------------------------------------------------------------

Stave 6:

E|----------------------
B|----------------------
G|----------17--19--17--
D|--17--19--------------
A|----------------------
E|----------------------

							http://www.guitartabcreator.com
Chords

Instruments
{"strings":[[[".",".",".",".",".",".","_",".",".",".",".",".",".",".",".",".",".",".",".","_","_",".",".",".",".",".",".",".","_"],[".",".",".",".",".",".","_",".",".",".",".",8,".",".",".",".",".",".",".","_","_",8,8,8,8,8,8,9,"_"],[".",".",5,7,7,7,"_",".",5,7,7,".",7,5,".",5,".",".",".","_","_",".",".",".",".",".",".",".","_"],[7,7,".",".",".",".","_",7,".",".",".",".",".",".",7,".",".",5,7,"_","_",".",".",".",".",".",".",".","_"],[".",".",".",".",".",".","_",".",".",".",".",".",".",".",".",".",7,".",".","_","_",".",".",".",".",".",".",".","_"],[".",".",".",".",".",".","_",".",".",".",".",".",".",".",".",".",".",".",".","_","_",".",".",".",".",".",".",".","_"]],[[".",8,8,8,5,"_",".",5,8,10,8,".","_",".",5,".","_"],[8,".",".",".",".","_",8,".",".",".",".",10,"_",8,".",8,"_"],[".",".",".",".",".","_",".",".",".",".",".",".","_",".",".",".","_"],[".",".",".",".",".","_",".",".",".",".",".",".","_",".",".",".","_"],[".",".",".",".",".","_",".",".",".",".",".",".","_",".",".",".","_"],[".",".",".",".",".","_",".",".",".",".",".",".","_",".",".",".","_"]],[[".",".",5,"_",5,8,10,10,8,5,"_",5,8,10,10,10,10,10,8,5,7,8,10,8,7,8,8],[5,8,".","_",".",".",".",".",".",".","_",".",".",".",".",".",".",".",".",".",".",".",".",".",".",".","."],[".",".",".","_",".",".",".",".",".",".","_",".",".",".",".",".",".",".",".",".",".",".",".",".",".",".","."],[".",".",".","_",".",".",".",".",".",".","_",".",".",".",".",".",".",".",".",".",".",".",".",".",".",".","."],[".",".",".","_",".",".",".",".",".",".","_",".",".",".",".",".",".",".",".",".",".",".",".",".",".",".","."],[".",".",".","_",".",".",".",".",".",".","_",".",".",".",".",".",".",".",".",".",".",".",".",".",".",".","."]],[[3,5,3,12,12,12,12,12,15,15,15,15,12,12,12,12,15,15,15,15],[".",".",".",".",".",".",".",".",".",".",".",".",".",".",".",".",".",".",".","."],[".",".",".",".",".",".",".",".",".",".",".",".",".",".",".",".",".",".",".","."],[".",".",".",".",".",".",".",".",".",".",".",".",".",".",".",".",".",".",".","."],[".",".",".",".",".",".",".",".",".",".",".",".",".",".",".",".",".",".",".","."],[".",".",".",".",".",".",".",".",".",".",".",".",".",".",".",".",".",".",".","."]],[[17,18,20,"_","_","_",8,9,8,8,9,".",".",".",".",20,20,20,20],[".",".",".","_","_","_",".",".",".",".",".",".",".",".",".",".",".",".","."],[".",".",".","_","_","_",".",".",".",".",".",17,17,17,17,".",".",".","."],[".",".",".","_","_","_",".",".",".",".",".",".",".",".",".",".",".",".","."],[".",".",".","_","_","_",".",".",".",".",".",".",".",".",".",".",".",".","."],[".",".",".","_","_","_",".",".",".",".",".",".",".",".",".",".",".",".","."]],[[".",".",".",".","."],[".",".",".",".","."],[".",".",17,19,17],[17,19,".",".","."],[".",".",".",".","."],[".",".",".",".","."]]],"numberofstrings":6,"notes":["E","B","G","D","A","E","B"],"capo":0,"stringnotes":["E4","B3","G3","D3","A2","E2"],"comments":["Stave 1:","Stave 2:","Stave 3:","Stave 4:","Stave 5:","Stave 6:"],"timing":[["W","W","W","W","W","W",null,"W","W","W","W","W","W","W","W","W","W","W","W",null,null,"W","W","W","W","W","W","W","W"],["W","W","W","W","W",null,"W","W","W","W","W","W",null,"W","W","W",null,"W","W"],["W","W","W","W","W","W","W","W","W","W",null,"W","W","W","W","W","W","W","W","W","W","W","W","W","W","W","W"],["W","W","W","W","W","W","W","W","W","W","W","W","W","W","W","W","W","W","W","W"],["W","W","W",null,null,null,"W","W","W","W","W","W","W","W","W","W","W","W","W"],["W","W","W","W","W"]],"timingvisible":false,"tabcounter":5,"stave":5,"totalstaves":6,"instrument":"6guitar","selectedtuning":"6_standard","version":"13"}

Member for

10 months 1 week
Submitted by Halec on Thu, 2020-12-17 18:07