longseason

01234567891011121314151617181920212223
E
B
G
D
A
E
B
0 1 2 3 4 5 6 7 8 9 10 11 12 13 14 15 16 17 18 19 20 21 22 23
(/) Slide Up  (\) Slide Down  (h) Hammer On  (p) Pull Off  (b) Bend (r) Release (v) Vibrato

Stave 1:

E|--------------------------
B|--------------------------
G|--2-----0--2-----2-----2--
D|--------------------------
A|-----0--------0-----0-----
E|--------------------------

Stave 2:

E|---------------------------------------------------------------------------
B|---------------------------------------------------------------------------
G|--0--2--4-----2--4-----4--4--4--2--4-----0--2--4-----7--5--4-----4/0--0/4--
D|---------------------------------------------------------------------------
A|---------------------------------------------------------------------------
E|---------------------------------------------------------------------------

Stave 3:

E|-----------------
B|--5--5--5--3--5--
G|-----------------
D|-----------------
A|-----------------
E|-----------------

							http://www.guitartabcreator.com
Chords

Instruments
{"strings":[[[".",".",".",".",".",".",".","."],[".",".",".",".",".",".",".","."],[2,".",0,2,".",2,".",2],[".",".",".",".",".",".",".","."],[".",0,".",".",0,".",0,"."],[".",".",".",".",".",".",".","."]],[[".",".",".","_",".",".","_",".",".",".",".",".","_",".",".",".","_",".",".",".","_",".",".",".",".",".","."],[".",".",".","_",".",".","_",".",".",".",".",".","_",".",".",".","_",".",".",".","_",".",".",".",".",".","."],[0,2,4,"_",2,4,"_",4,4,4,2,4,"_",0,2,4,"_",7,5,4,"_",4,"/",0,0,"/",4],[".",".",".","_",".",".","_",".",".",".",".",".","_",".",".",".","_",".",".",".","_",".",".",".",".",".","."],[".",".",".","_",".",".","_",".",".",".",".",".","_",".",".",".","_",".",".",".","_",".",".",".",".",".","."],[".",".",".","_",".",".","_",".",".",".",".",".","_",".",".",".","_",".",".",".","_",".",".",".",".",".","."]],[[".",".",".",".","."],[5,5,5,3,5],[".",".",".",".","."],[".",".",".",".","."],[".",".",".",".","."],[".",".",".",".","."]]],"numberofstrings":6,"notes":["E","B","G","D","A","E","B"],"capo":0,"stringnotes":["E4","B3","G3","D3","A2","E2"],"comments":["Stave 1:","Stave 2:","Stave 3:"],"timing":[["W","W","W","W","W","W","W","W"],["W","W","W",null,"W","W",null,"W","W","W","W","W",null,"W","W","W",null,"W","W","W",null,"W",null,"W","W",null,"W"],["W","W","W","W","W"]],"timingvisible":false,"tabcounter":5,"stave":2,"totalstaves":3,"instrument":"6guitar","selectedtuning":"6_standard","version":"13"}

Member for

8 months 3 weeks
Submitted by Halec on Thu, 2020-10-22 18:27