Lasting Lover by James Arthur

01234567891011121314151617181920212223
E
B
G
D
A
E
B
0 1 2 3 4 5 6 7 8 9 10 11 12 13 14 15 16 17 18 19 20 21 22 23
(/) Slide Up  (\) Slide Down  (h) Hammer On  (p) Pull Off  (b) Bend (r) Release (v) Vibrato

Stave 1:

E|--11--9-------------13--13-----11--9-------------13--13-----11--9-------------9--9-----11--9-------------9--9--9--
B|---------13--11--9--------------------13--11--9--------------------13--11--9------------------13--11--9-----------
G|------------------------------------------------------------------------------------------------------------------
D|------------------------------------------------------------------------------------------------------------------
A|------------------------------------------------------------------------------------------------------------------
E|------------------------------------------------------------------------------------------------------------------

Stave 2:

E|--------------------------------------------------------------------------------------------
B|--------------------------------------------------------------------------------------------
G|--------------------------------------------------------------------------------------------
D|--6--6/8\6\3-----1--3/4--3--3-----1-----1--3--4\6-----3--3/4/6--6-----------1/3/4--4--3-----
A|-------------------------------------4-----------------------------4---------------------4--
E|----------------------------------------------------------------------4---------------------

Stave 3:

E|---------------------------------------------------------------------------------------------------------------------
B|--------------------------------------------------------------------------6--6--6------------------------------------
G|--6--6/8--5--6--8--8/10--8--6--5--3--------6/8--6--8--10--13/15--5--6-----6--6--6--13------13------6--6--6--6--6-----
D|----------------------------------------6---------------------------------6--6--6------15------15--------------------
A|--------------------------------------------------------------------------4--4--4------------------------------------
E|---------------------------------------------------------------------------------------------------------------------

Stave 4:

E|--------------------------------------------------------------------------------------------------------------------------------
B|--------------------------------------------------------------------------------------------------------------------------------
G|--10/13\10-----10/13\8-----6--6--8--6--8-----8--8--8--8-----6--8--8-----8--8--8--8-----3/6-----10--13--13--10--10--8--8/10\3/6--
D|--------------------------------------------------------------------------------------------------------------------------------
A|--------------------------------------------------------------------------------------------------------------------------------
E|--------------------------------------------------------------------------------------------------------------------------------

Stave 5:

E|--14--13--------------16--16--14--13--------------16--16--14--13--------------13--13--14--13--------------13--13--
B|----------16--14--13------------------16--14--13------------------16--14--13------------------16--14--13----------
G|------------------------------------------------------------------------------------------------------------------
D|------------------------------------------------------------------------------------------------------------------
A|------------------------------------------------------------------------------------------------------------------
E|------------------------------------------------------------------------------------------------------------------

							http://www.guitartabcreator.com
Chords

Instruments
{"strings":[[[11,9,".",".",".",13,13,"_",11,9,".",".",".",13,13,"_",11,9,".",".",".",9,9,"_",11,9,".",".",".",9,9,9],[".",".",13,11,9,".",".","_",".",".",13,11,9,".",".","_",".",".",13,11,9,".",".","_",".",".",13,11,9,".",".","."],[".",".",".",".",".",".",".","_",".",".",".",".",".",".",".","_",".",".",".",".",".",".",".","_",".",".",".",".",".",".",".","."],[".",".",".",".",".",".",".","_",".",".",".",".",".",".",".","_",".",".",".",".",".",".",".","_",".",".",".",".",".",".",".","."],[".",".",".",".",".",".",".","_",".",".",".",".",".",".",".","_",".",".",".",".",".",".",".","_",".",".",".",".",".",".",".","."],[".",".",".",".",".",".",".","_",".",".",".",".",".",".",".","_",".",".",".",".",".",".",".","_",".",".",".",".",".",".",".","."]],[[".",".",".",".",".",".",".",".","_",".",".",".",".",".",".","_",".",".",".",".",".",".",".","_",".",".",".",".",".",".",".",".",".","_",".",".",".",".",".",".",".","."],[".",".",".",".",".",".",".",".","_",".",".",".",".",".",".","_",".",".",".",".",".",".",".","_",".",".",".",".",".",".",".",".",".","_",".",".",".",".",".",".",".","."],[".",".",".",".",".",".",".",".","_",".",".",".",".",".",".","_",".",".",".",".",".",".",".","_",".",".",".",".",".",".",".",".",".","_",".",".",".",".",".",".",".","."],[6,6,"/",8,"\\",6,"\\",3,"_",1,3,"/",4,3,3,"_",1,".",1,3,4,"\\",6,"_",3,3,"/",4,"/",6,6,".",".","_",1,"/",3,"/",4,4,3,"."],[".",".",".",".",".",".",".",".","_",".",".",".",".",".",".","_",".",4,".",".",".",".",".","_",".",".",".",".",".",".",".",4,".","_",".",".",".",".",".",".",".",4],[".",".",".",".",".",".",".",".","_",".",".",".",".",".",".","_",".",".",".",".",".",".",".","_",".",".",".",".",".",".",".",".",4,"_",".",".",".",".",".",".",".","."]],[[".",".",".",".",".",".",".",".",".",".",".",".",".",".","_",".",".",".",".",".",".",".",".",".",".",".",".","_",".",".",".",".",".",".",".",".",".",".",".",".","_"],[".",".",".",".",".",".",".",".",".",".",".",".",".",".","_",".",".",".",".",".",".",".",".",".",".",".",".","_",6,6,6,".",".",".",".",".",".",".",".",".","_"],[6,6,"/",8,5,6,8,8,"/",10,8,6,5,3,"_",".",6,"/",8,6,8,10,13,"/",15,5,6,"_",6,6,6,13,".",13,".",6,6,6,6,6,"_"],[".",".",".",".",".",".",".",".",".",".",".",".",".",".","_",6,".",".",".",".",".",".",".",".",".",".",".","_",6,6,6,".",15,".",15,".",".",".",".",".","_"],[".",".",".",".",".",".",".",".",".",".",".",".",".",".","_",".",".",".",".",".",".",".",".",".",".",".",".","_",4,4,4,".",".",".",".",".",".",".",".",".","_"],[".",".",".",".",".",".",".",".",".",".",".",".",".",".","_",".",".",".",".",".",".",".",".",".",".",".",".","_",".",".",".",".",".",".",".",".",".",".",".",".","_"]],[[".",".",".",".",".","_",".",".",".",".",".","_",".",".",".",".",".","_",".",".",".",".","_",".",".",".","_",".",".",".",".","_",".",".",".","_",".",".",".",".",".",".",".",".",".",".",".",".","."],[".",".",".",".",".","_",".",".",".",".",".","_",".",".",".",".",".","_",".",".",".",".","_",".",".",".","_",".",".",".",".","_",".",".",".","_",".",".",".",".",".",".",".",".",".",".",".",".","."],[10,"/",13,"\\",10,"_",10,"/",13,"\\",8,"_",6,6,8,6,8,"_",8,8,8,8,"_",6,8,8,"_",8,8,8,8,"_",3,"/",6,"_",10,13,13,10,10,8,8,"/",10,"\\",3,"/",6],[".",".",".",".",".","_",".",".",".",".",".","_",".",".",".",".",".","_",".",".",".",".","_",".",".",".","_",".",".",".",".","_",".",".",".","_",".",".",".",".",".",".",".",".",".",".",".",".","."],[".",".",".",".",".","_",".",".",".",".",".","_",".",".",".",".",".","_",".",".",".",".","_",".",".",".","_",".",".",".",".","_",".",".",".","_",".",".",".",".",".",".",".",".",".",".",".",".","."],[".",".",".",".",".","_",".",".",".",".",".","_",".",".",".",".",".","_",".",".",".",".","_",".",".",".","_",".",".",".",".","_",".",".",".","_",".",".",".",".",".",".",".",".",".",".",".",".","."]],[[14,13,".",".",".",16,16,14,13,".",".",".",16,16,14,13,".",".",".",13,13,14,13,".",".",".",13,13],[".",".",16,14,13,".",".",".",".",16,14,13,".",".",".",".",16,14,13,".",".",".",".",16,14,13,".","."],[".",".",".",".",".",".",".",".",".",".",".",".",".",".",".",".",".",".",".",".",".",".",".",".",".",".",".","."],[".",".",".",".",".",".",".",".",".",".",".",".",".",".",".",".",".",".",".",".",".",".",".",".",".",".",".","."],[".",".",".",".",".",".",".",".",".",".",".",".",".",".",".",".",".",".",".",".",".",".",".",".",".",".",".","."],[".",".",".",".",".",".",".",".",".",".",".",".",".",".",".",".",".",".",".",".",".",".",".",".",".",".",".","."]]],"numberofstrings":6,"notes":["E","B","G","D","A","E","B"],"capo":0,"stringnotes":["E4","B3","G3","D3","A2","E2"],"comments":["Stave 1:","Stave 2:","Stave 3:","Stave 4:","Stave 5:"],"timing":[["W","W","W","W","W","W","W",null,"W","W","W","W","W","W","W",null,"W","W","W","W","W","W","W",null,"W","W","W","W","W","W","W","W"],["W","W",null,"W",null,"W",null,"W",null,"W","W",null,"W","W","W",null,"W","W","W","W","W",null,"W",null,"W","W",null,"W",null,"W","W","W","W",null,"W",null,"W","W","W","W","W","W"],["W","W","W","W","W","W","W","W",null,"W","W","W","W","W",null,"W","W",null,"W","W","W","W","W",null,"W","W","W",null,"W","W","W","W","W","W","W","W","W","W","W","W"],["W",null,"W",null,"W",null,"W",null,"W",null,"W",null,"W","W","W","W","W",null,"W","W","W","W",null,"W","W","W",null,"W","W","W","W",null,"W",null,"W",null,"W","W","W","W","W","W","W",null,"W",null,"W",null,"W"],["W","W","W","W","W","W","W","W","W","W","W","W","W","W","W","W","W","W","W","W","W","W","W","W","W","W","W","W"]],"timingvisible":false,"tabcounter":28,"stave":4,"totalstaves":5,"instrument":"6guitar","selectedtuning":"6_standard","version":"13"}

Member for

8 months 3 weeks
Submitted by Halec on Fri, 2020-09-04 12:37