hrvy

01234567891011121314151617181920212223
E
B
G
D
A
E
B
0 1 2 3 4 5 6 7 8 9 10 11 12 13 14 15 16 17 18 19 20 21 22 23
(/) Slide Up  (\) Slide Down  (h) Hammer On  (p) Pull Off  (b) Bend (r) Release (v) Vibrato

Stave 1:

E|-------------------------------------------------------------------------------------------------------------------------------------------
B|-----------------8--10--11--------------3--6--3-----------------------------------------------------6--8--11-----11/13/15-----11--10--8\6--
G|--5/7\5\3----------------------3--3--5-----------5--5--5-----5--7--3--3--3--3-----------------5--7-----------------------------------------
D|-----------5-----5--7---8------------------------------------------------------------3--5--8-----------------------------------------------
A|----------------------------------------------------------------------------------5--------------------------------------------------------
E|-------------------------------------------------------------------------------------------------------------------------------------------

Stave 2:

E|---------------------
B|--15--16--15--11/13--
G|---------------------
D|---------------------
A|---------------------
E|---------------------

							http://www.guitartabcreator.com
Chords

Instruments
{"strings":[[[".",".",".",".",".",".",".",".","_",".",".",".","_",".",".",".",".",".",".",".",".",".","_",".",".",".",".",".",".","_",".",".",".",".",".",".",".",".",".","_",".",".",".",".",".","_",".",".",".",".","."],[".",".",".",".",".",".",".",".","_",8,10,11,"_",".",".",".",3,6,3,".",".",".","_",".",".",".",".",".",".","_",".",".",".",".",".",".",6,8,11,"_",11,"/",13,"/",15,"_",11,10,8,"\\",6],[5,"/",7,"\\",5,"\\",3,".","_",".",".",".","_",3,3,5,".",".",".",5,5,5,"_",5,7,3,3,3,3,"_",".",".",".",".",5,7,".",".",".","_",".",".",".",".",".","_",".",".",".",".","."],[".",".",".",".",".",".",".",5,"_",5,7,8,"_",".",".",".",".",".",".",".",".",".","_",".",".",".",".",".",".","_",".",3,5,8,".",".",".",".",".","_",".",".",".",".",".","_",".",".",".",".","."],[".",".",".",".",".",".",".",".","_",".",".",".","_",".",".",".",".",".",".",".",".",".","_",".",".",".",".",".",".","_",5,".",".",".",".",".",".",".",".","_",".",".",".",".",".","_",".",".",".",".","."],[".",".",".",".",".",".",".",".","_",".",".",".","_",".",".",".",".",".",".",".",".",".","_",".",".",".",".",".",".","_",".",".",".",".",".",".",".",".",".","_",".",".",".",".",".","_",".",".",".",".","."]],[[".",".",".",".",".","."],[15,16,15,11,"/",13],[".",".",".",".",".","."],[".",".",".",".",".","."],[".",".",".",".",".","."],[".",".",".",".",".","."]]],"numberofstrings":6,"notes":["E","B","G","D","A","E","B"],"capo":0,"stringnotes":["E4","B3","G3","D3","A2","E2"],"comments":["Stave 1:","Stave 2:"],"timing":[["W",null,"W",null,"W",null,"W","W",null,"W","W","W","W","W","W","W","W","W","W","W","W","W",null,"W","W","W","W","W","W",null,"W","W","W","W","W","W","W","W","W",null,"W",null,"W",null,"W",null,"W","W","W",null,"W"],["W","W","W","W",null,"W"]],"timingvisible":false,"tabcounter":6,"stave":1,"totalstaves":2,"instrument":"6guitar","selectedtuning":"6_standard","version":"13"}

Member for

8 months 3 weeks
Submitted by Halec on Thu, 2020-09-10 18:32