fishmans

01234567891011121314151617181920212223
E
B
G
D
A
E
B
0 1 2 3 4 5 6 7 8 9 10 11 12 13 14 15 16 17 18 19 20 21 22 23
(/) Slide Up  (\) Slide Down  (h) Hammer On  (p) Pull Off  (b) Bend (r) Release (v) Vibrato

Stave 1:

E|------------------------------------
B|------------------------------------
G|--10--8--8--6-----6--------------6--
D|---------------8-----8--6--7--8-----
A|------------------------------------
E|------------------------------------

Stave 2:

E|--------------------------9--11--13--13--15--15--15--15--16--16--16--16--18--18--18--18-----15--15--
B|---------------9--10--11----------------------------------------------------------------------------
G|-----6--8--10---------------------------------------------------------------------------------------
D|--8-------------------------------------------------------------------------------------------------
A|----------------------------------------------------------------------------------------------------
E|----------------------------------------------------------------------------------------------------

							http://www.guitartabcreator.com
Chords

Instruments
{"strings":[[[".",".",".",".",".",".",".",".",".",".","."],[".",".",".",".",".",".",".",".",".",".","."],[10,8,8,6,".",6,".",".",".",".",6],[".",".",".",".",8,".",8,6,7,8,"."],[".",".",".",".",".",".",".",".",".",".","."],[".",".",".",".",".",".",".",".",".",".","."]],[[".",".",".",".",".",".",".",9,11,13,13,15,15,15,15,16,16,16,16,18,18,18,18,"_",15,15],[".",".",".",".",9,10,11,".",".",".",".",".",".",".",".",".",".",".",".",".",".",".",".","_",".","."],[".",6,8,10,".",".",".",".",".",".",".",".",".",".",".",".",".",".",".",".",".",".",".","_",".","."],[8,".",".",".",".",".",".",".",".",".",".",".",".",".",".",".",".",".",".",".",".",".",".","_",".","."],[".",".",".",".",".",".",".",".",".",".",".",".",".",".",".",".",".",".",".",".",".",".",".","_",".","."],[".",".",".",".",".",".",".",".",".",".",".",".",".",".",".",".",".",".",".",".",".",".",".","_",".","."]]],"numberofstrings":6,"notes":["E","B","G","D","A","E","B"],"capo":0,"stringnotes":["E4","B3","G3","D3","A2","E2"],"comments":["Stave 1:","Stave 2:"],"timing":[["W","W","W","W","W","W","W","W","W","W","W"],["W","W","W","W","W","W","W","W","W","W","W","W","W","W","W","W","W","W","W","W","W","W","W",null,"W","W"]],"timingvisible":false,"tabcounter":26,"stave":1,"totalstaves":2,"instrument":"6guitar","selectedtuning":"6_standard","version":"13"}

Member for

8 months 3 weeks
Submitted by Halec on Wed, 2020-10-21 18:14