Sound will begin in 5 seconds

Smile solo

01234567891011121314151617181920212223
E
B
G
D
A
E
B
0 1 2 3 4 5 6 7 8 9 10 11 12 13 14 15 16 17 18 19 20 21 22 23
Song Science #1: How Pros Use 6 Chords to Write Hit Songs
(/) Slide Up  (\) Slide Down  (h) Hammer On  (p) Pull Off  (b) Bend (r) Release (v) Vibrato

Stave 1:

E|-------------------------------------------------------------------12b14--14b12--12b14b12--12p11--9--
B|--5--6--7--7-----/12--10--12/14p12\7--7p5--7--7/9--9--9/10--10/12------------------------------------
G|-----------------------------------------------------------------------------------------------------
D|-----------------------------------------------------------------------------------------------------
A|-----------------------------------------------------------------------------------------------------
E|-----------------------------------------------------------------------------------------------------

Stave 2:

E|--10--9h10p9--10--9--9-----\7--7--5h7--7p5--7b9--7--5--5\2--2/5--5\2--2/5--5/7--7h8--8h10--10p8--
B|-------------------------------------------------------------------------------------------------
G|-------------------------------------------------------------------------------------------------
D|-------------------------------------------------------------------------------------------------
A|-------------------------------------------------------------------------------------------------
E|-------------------------------------------------------------------------------------------------

Stave 3:

E|--10b12b10b12b10--10--10--10--10--10--10b12b12--15b17b15--17--15--12-----12--12--12--14--14--12--14--17--
B|---------------------------------------------------------------------------------------------------------
G|---------------------------------------------------------------------------------------------------------
D|---------------------------------------------------------------------------------------------------------
A|---------------------------------------------------------------------------------------------------------
E|---------------------------------------------------------------------------------------------------------

Stave 4:

E|--14--17b19--19b17--14-----/14-----/14--12--9----------------
B|-----------------------------------------------12--------\0--
G|-------------------------------------------------------------
D|-------------------------------------------------------------
A|-------------------------------------------------------------
E|-------------------------------------------------------------

http://www.guitartabcreator.com
Guitar Tab Creator is intended to store guitar tab created through the tool. It currently does not support in-line text editing. Any text you place in here will be lost. If you need to comment on your tab, please use the "Tab Notes" section located below.