Sound will begin in 5 seconds

Apostle

01234567891011121314151617181920212223
E
B
G
D
A
E
B
0 1 2 3 4 5 6 7 8 9 10 11 12 13 14 15 16 17 18 19 20 21 22 23
Song Science #1: How Pros Use 6 Chords to Write Hit Songs
(/) Slide Up  (\) Slide Down  (h) Hammer On  (p) Pull Off  (b) Bend (r) Release (v) Vibrato

Stave 1:

F|--------------------------------------------------------------------------
C|------------15---------------14---------------12---------------12--10--9--
G|--------------------------------------------------------------------------
C|--0--12--0---------0--12--0---------0--12--0---------0--12--0-------------

Stave 2:

F|--------------------------------------------------------------------------
C|------------15---------------14---------------12---------------12--10--9--
G|--------------------------------------------------------------------------
C|--0--12--0---------0--12--0---------0--12--0---------0--12--0-------------

Stave 3:

F|--------------------------------------------------------------------------
C|--------------------------------------------------------------------------
G|--------------------------------------------------------------------------
C|--0--0--0--0--0--0--3--3--3--3--3--3--8--8--8--8--8--8--7--7--7--7--7--7--

Stave 4:

F|--------------------------------------------------------------------------
C|--------------------------------------------------------------------------
G|--------------------------------------------------------------------------
C|--0--0--0--0--0--0--3--3--3--3--3--3--8--8--8--8--8--8--7--7--7--7--7--7--

Stave 5:

F|--------------------------------------------------------------------------
C|--------------------------------------------------------------------------
G|--------------------------------------------------------------------------
C|--0--0--0--0--0--0--3--3--3--3--3--3--8--8--8--8--8--8--7--7--7--7--7--7--

Stave 6:

F|--------------------------------------------------------------------------
C|--------------------------------------------------------------------------
G|--------------------------------------------------------------------------
C|--0--0--0--0--0--0--3--3--3--3--3--3--8--8--8--8--8--8--7--7--7--7--7--7--

Stave 7:

F|---------------------------------------------------------------------------
C|---------------------------------------------------------------------------
G|---------------------------------------------------------------------------
C|--3--3--3--3--------5--5--5--5--------8--8--8--8--8--8--8--10--8--7--8--7--

Stave 8:

F|---------------------------------------------------------------------------
C|---------------------------------------------------------------------------
G|---------------------------------------------------------------------------
C|--3--3--3--3--------5--5--5--5--------8--8--8--8--8--8--8--10--8--7--8--7--

Stave 9:

F|--------------------------------------------------------------------------
C|--------------------------------------------------------------------------
G|--------------------------------------------------------------------------
C|--3--3--3--3--3--3--5--5--5--5--5--5--8--8--8--8--8--8--8--8--8--8--8--8--

Stave 10:

F|--------------------------------------------------
C|--------------------------------------------------
G|--------------------------------------------------
C|--10--10--10--10--10--10--10--10--10--10--10--10--

Stave 11:

F|-----------------------------
C|-----------------------------
G|-----------------------------
C|--0--0--0--0-----0--0--0--0--

Stave 12:

F|--------------------------------------------------------------------------
C|--------------------------------------------------------------------------
G|--------------------------------------------------------------------------
C|--0--0--0--0--0--0--3--3--3--3--3--3--8--8--8--8--8--8--7--7--7--7--7--7--

Stave 13:

F|--------------------------------------------------------------------------
C|--------------------------------------------------------------------------
G|--------------------------------------------------------------------------
C|--0--0--0--0--0--0--3--3--3--3--3--3--8--8--8--8--8--8--7--7--7--7--7--7--

Stave 14:

F|--------------------------------------------------------------------------
C|--------------------------------------------------------------------------
G|--------------------------------------------------------------------------
C|--0--0--0--0--0--0--3--3--3--3--3--3--8--8--8--8--8--8--7--7--7--7--7--7--

Stave 15:

F|--------------------------------------------------------------------------
C|--------------------------------------------------------------------------
G|--------------------------------------------------------------------------
C|--0--0--0--0--0--0--3--3--3--3--3--3--8--8--8--8--8--8--7--7--7--7--7--7--

Stave 16:

F|---------------------------------------------------------------------
C|---------------------------------------------------------------------
G|---------------------------------------------------------------------
C|--3--3--3--3-----5--5--5--5-----8--8--8--8--8--8--8--10--8--7--8--7--

Stave 17:

F|---------------------------------------------------------------------
C|---------------------------------------------------------------------
G|---------------------------------------------------------------------
C|--3--3--3--3-----5--5--5--5-----8--8--8--8--8--8--8--10--8--7--8--7--

Stave 18:

F|--------------------------------------------------------------------------
C|--------------------------------------------------------------------------
G|--------------------------------------------------------------------------
C|--3--3--3--3--3--3--5--5--5--5--5--5--8--8--8--8--8--8--8--8--8--8--8--8--

Stave 19:

F|--------------------------------------------------
C|--------------------------------------------------
G|--------------------------------------------------
C|--10--10--10--10--10--10--10--10--10--10--10--10--

Stave 20:

F|--------------------------------------------------------------------------
C|--------------------------------------------------------------------------
G|--------------------3-----------------------------------3-----------------
C|--0--0--0--3--0--0-----0--0--8--7--5--0--0--0--3--0--0-----0--0--5--7--8--

Stave 21:

F|--------------------------------------------------------------------------
C|--------------------------------------------------------------------------
G|--------------------3-----------------------------------3-----------------
C|--0--0--0--3--0--0-----0--0--8--7--5--0--0--0--3--0--0-----0--0--5--7--8--

Stave 22:

F|--------------------------------------------------------------------------
C|--------------------------------------------------------------------------
G|--------------------3-----------------------------------3-----------------
C|--0--0--0--3--0--0-----0--0--8--7--5--0--0--0--3--0--0-----0--0--5--7--8--

Stave 23:

F|--------------------------------------------------------------------------
C|--------------------------------------------------------------------------
G|--------------------3-----------------------------------3-----------------
C|--0--0--0--3--0--0-----0--0--8--7--5--0--0--0--3--0--0-----0--0--5--7--8--

Stave 24:

F|--------------------------------------------------------------------------
C|--------------------------------------------------------------------------
G|--------------------3-----------------------------------3-----------------
C|--0--0--0--3--0--0-----0--0--8--7--5--0--0--0--3--0--0-----0--0--5--7--8--

Stave 25:

F|--------------------------------------------------------------------------
C|--------------------------------------------------------------------------
G|--------------------3-----------------------------------3-----------------
C|--0--0--0--3--0--0-----0--0--8--7--5--0--0--0--3--0--0-----0--0--5--7--8--

Stave 26:

F|--------------------------------------------------------------------------
C|--------------------------------------------------------------------------
G|--------------------3-----------------------------------3-----------------
C|--0--0--0--3--0--0-----0--0--8--7--5--0--0--0--3--0--0-----0--0--5--7--8--

Stave 27:

F|--------------------------------------------------------------------------
C|--------------------------------------------------------------------------
G|--------------------3-----------------------------------3-----------------
C|--0--0--0--3--0--0-----0--0--8--7--5--0--0--0--3--0--0-----0--0--5--7--8--

Stave 28:

F|---------------------------------
C|---------------------------------
G|---------------------------------
C|--3--3--3--3h5--3--3--2--2--2--3b

Stave 29:

F|---------------------------------------------------------------------
C|---------------------------------------------------------------------
G|---------------------------------------------------------------------
C|--3--3--3--3-----5--5--5--5-----8--8--8--8--8--8--8--10--8--7--8--7--

Stave 30:

F|---------------------------------------------------------------------
C|---------------------------------------------------------------------
G|---------------------------------------------------------------------
C|--3--3--3--3-----5--5--5--5-----8--8--8--8--8--8--8--10--8--7--8--7--

Stave 31:

F|--------------------------------------------------------------------------
C|--------------------------------------------------------------------------
G|--------------------------------------------------------------------------
C|--3--3--3--3--3--3--5--5--5--5--5--5--8--8--8--8--8--8--8--8--8--8--8--8--

Stave 32:

F|--------------------------------------------------
C|--------------------------------------------------
G|--------------------------------------------------
C|--10--10--10--10--10--10--10--10--10--10--10--10--

Stave 33:

F|--------------------------------------------------------------------------
C|--------------------------------------------------------------------------
G|-----------3-----------------------------------3--------------------------
C|--0--3--0-----0--3--0--3--0--8--7--5--0--3--0-----0--3--0--3--0--5--7--8--

Stave 34:

F|--------------------------------------------------------------------------
C|--------------------------------------------------------------------------
G|-----------3-----------------------------------3--------------------------
C|--0--3--0-----0--3--0--3--0--8--7--5--0--3--0-----0--3--0--3--0--5--7--8--

Stave 35:

F|--------------------------------------------------------------------------
C|--------------------------------------------------------------------------
G|-----------3-----------------------------------3--------------------------
C|--0--3--0-----0--3--0--3--0--8--7--5--0--3--0-----0--3--0--3--0--5--7--8--

Stave 36:

F|--------------------------------------------------------------------------
C|--------------------------------------------------------------------------
G|-----------3-----------------------------------3--------------------------
C|--0--3--0-----0--3--0--3--0--8--7--5--0--3--0-----0--3--0--3--0--5--7--8--

http://www.guitartabcreator.com
Guitar Tab Creator is intended to store guitar tab created through the tool. It currently does not support in-line text editing. Any text you place in here will be lost. If you need to comment on your tab, please use the "Tab Notes" section located below.