Sound will begin in 5 seconds

k'vor - Chains Of Entrapment

Chords
01234567891011121314151617181920212223
E
B
G
D
A
E
B
0 1 2 3 4 5 6 7 8 9 10 11 12 13 14 15 16 17 18 19 20 21 22 23
(/) Slide Up  (\) Slide Down  (h) Hammer On  (p) Pull Off  (b) Bend (r) Release (v) Vibrato

Stave 1:

D|--------------------------------------------------------------------------
A|--------------------------------------------------------------------------
F|--------2--------2--------2--------3--------2--------2--------7--------6--
C|-----4--------4--------4--------5--------4--------4--------9--------8-----
G|--4--------4--------4--------5--------4--------4--------9--------8--------
D|--------------------------------------------------------------------------

Stave 2:

D|-------------------------------------------------------------------------------
A|-------------------------------------------------------------------------------
F|--------6--------6--------6--------7--------6--------6----------10----------9--
C|-----8--------8--------8--------9--------8--------8---------12----------11-----
G|--8--------8--------8--------9--------8--------8--------12----------11---------
D|-------------------------------------------------------------------------------

Stave 3:

D|----------------------------------------------------------------------------
A|----------------------------------------------------------------------------
F|--------6--------6--------6--------7--------6----------9--------4--------5--
C|-----8--------8--------8--------9--------8---------11--------6--------7-----
G|--8--------8--------8--------9--------8--------11---------6--------7--------
D|----------------------------------------------------------------------------

Stave 4:

D|--------------------------------------------------------------------------
A|--------------------------------------------------------------------------
F|--------5--------5--------5--------6--------5--------5--------1--------1--
C|-----7--------7--------7--------8--------7--------7--------3--------3-----
G|--7--------7--------7--------8--------7--------7--------3--------3--------
D|--------------------------------------------------------------------------

Stave 5:

D|--------------------------------------------------------------------------------
A|--------------------------------------------------2-----------------------------
F|--2--3--3--2--3--2--3--4--5--4--3-----2--3--3--3--4--2--3--3--2--3--4--5--4--3--
C|--2--3--3--2--3--2--3--4--5--4--3-----2--3--3--3-----4--5--5--4--5--6--7--6--5--
G|--------------------------------------------------------------------------------
D|--------------------------------------------------------------------------------

http://www.guitartabcreator.com
Guitar Tab Creator is intended to store guitar tab created through the tool. It currently does not support in-line text editing. Any text you place in here will be lost. If you need to comment on your tab, please use the "Tab Notes" section located below.