Rat Bat Blue - Deep Purple

Chords

01234567891011121314151617181920212223
E
B
G
D
A
E
B
0 1 2 3 4 5 6 7 8 9 10 11 12 13 14 15 16 17 18 19 20 21 22 23
(/) Slide Up  (\) Slide Down  (h) Hammer On  (p) Pull Off  (b) Bend (r) Release (v) Vibrato

(W|WW) Whole  (H|HH) Half  (Q|QQ) Quarter  (E|EE) 8th (S|SS) 16th  (T|TT) 32nd (X|XX) 64th

Stave 1:
t:  S  S  S  S  S  S  S  S  S  S  S  S  S  S  S  S  S  E  S  S  S  S  S  S  S  S  S  S  S  S  E     S  E  S  E  S  S  S  E  S  E  S  S     
G|--------------------------------------------------5--------------------------------------------|--------------------------------------|--
D|-----------------------------------------------------------------------------------------------|--------------------------------------|--
A|-----------------------------------------5--6--7-----7--5-----5-----------5-----5--6--5--------|--5--5--5--5--------5--5--5--5--------|--
E|--5--5--5--5--5--5--5--5--5--5--5--5--5--------------------8-----8--5--8-----8-----------8--5--|--------------5--8--------------5--8--|--
B|-----------------------------------------------------------------------------------------------|--------------------------------------|--

Stave 2:
t:  S  E  S  E  S  S  E  E  E  E  S  E  S  E  S  S  S  E  S  S  S  S  S     S  E  S  S  S  S  S  S  S  S  S  S  S  S  E     H  Q  E     
G|-----------------------------------------------------------------------|--5--------------------------------------------|-----------|--
D|-----------------------------------------------------------------------|-----------------------------------------------|-----------|--
A|--5--5--5--5--------5-----------------------------------------5--6--7--|-----7--5-----5-----------5-----5--6--5--------|--7--5-----|--
E|--------------5--8--------------5--5--5--5--------5--5--5--5-----------|-----------8-----8--5--8-----8-----------8--5--|--------8--|--
B|-----------------------7--8--9--------------5--8-----------------------|-----------------------------------------------|-----------|--

							http://www.guitartabcreator.com
genre
Instruments
{"strings":[[[".",".",".",".",".",".",".",".",".",".",".",".",".",".",".",".",5,".",".",".",".",".",".",".",".",".",".",".",".",".",".","|",".",".",".",".",".",".",".",".",".",".",".",".","|"],[".",".",".",".",".",".",".",".",".",".",".",".",".",".",".",".",".",".",".",".",".",".",".",".",".",".",".",".",".",".",".","|",".",".",".",".",".",".",".",".",".",".",".",".","|"],[".",".",".",".",".",".",".",".",".",".",".",".",".",5,6,7,".",7,5,".",5,".",".",".",5,".",5,6,5,".",".","|",5,5,5,5,".",".",5,5,5,5,".",".","|"],[5,5,5,5,5,5,5,5,5,5,5,5,5,".",".",".",".",".",".",8,".",8,5,8,".",8,".",".",".",8,5,"|",".",".",".",".",5,8,".",".",".",".",5,8,"|"],[".",".",".",".",".",".",".",".",".",".",".",".",".",".",".",".",".",".",".",".",".",".",".",".",".",".",".",".",".",".",".","|",".",".",".",".",".",".",".",".",".",".",".",".","|"]],[[".",".",".",".",".",".",".",".",".",".",".",".",".",".",".",".",".",".",".",".",".",".",".","|",5,".",".",".",".",".",".",".",".",".",".",".",".",".",".","|",".",".",".","|"],[".",".",".",".",".",".",".",".",".",".",".",".",".",".",".",".",".",".",".",".",".",".",".","|",".",".",".",".",".",".",".",".",".",".",".",".",".",".",".","|",".",".",".","|"],[5,5,5,5,".",".",5,".",".",".",".",".",".",".",".",".",".",".",".",".",5,6,7,"|",".",7,5,".",5,".",".",".",5,".",5,6,5,".",".","|",7,5,".","|"],[".",".",".",".",5,8,".",".",".",".",5,5,5,5,".",".",5,5,5,5,".",".",".","|",".",".",".",8,".",8,5,8,".",8,".",".",".",8,5,"|",".",".",8,"|"],[".",".",".",".",".",".",".",7,8,9,".",".",".",".",5,8,".",".",".",".",".",".",".","|",".",".",".",".",".",".",".",".",".",".",".",".",".",".",".","|",".",".",".","|"]]],"numberofstrings":5,"notes":["G","D","A","E","B"],"capo":0,"stringnotes":["G2","D2","A1","E1","B1"],"comments":["Stave 1:","Stave 2:"],"timing":[["S","S","S","S","S","S","S","S","S","S","S","S","S","S","S","S","S","E","S","S","S","S","S","S","S","S","S","S","S","S","E",null,"S","E","S","E","S","S","S","E","S","E","S","S",null,"S","E","S","E","S","E"],["S","E","S","E","S","S","E","E","E","E","S","E","S","E","S","S","S","E","S","S","S","S","S",null,"S","E","S","S","S","S","S","S","S","S","S","S","S","S","E",null,"H","Q","E"]],"timingvisible":true,"tabcounter":44,"stave":1,"totalstaves":2,"instrument":"5bass","selectedtuning":"5bass","version":"13"}

Member for

3 months 2 weeks
Submitted by gwhatmore on Sun, 2020-08-16 22:41