Sound will begin in 5 seconds

Song Ideas

Chords
01234567891011121314151617181920212223
E
B
G
D
A
E
B
0 1 2 3 4 5 6 7 8 9 10 11 12 13 14 15 16 17 18 19 20 21 22 23
Song Science #1: How Pros Use 6 Chords to Write Hit Songs
(/) Slide Up  (\) Slide Down  (h) Hammer On  (p) Pull Off  (b) Bend (r) Release (v) Vibrato

Stave 1:

E|--------------------------------------------------------------------------------------------------
B|--3--3--3--3--3--3--3--3--3--3--3--3--3--3--3--3--1--1--1--1--5--5--5--5--3--3--3--3--3--3--3--3--
G|--2--2--2--2--2--2--2--2--0--0--0--0--0--0--0--0--0--0--0--0--0--0--0--0--2--2--2--2--2--2--2--2--
D|--------------------------------------------------------------------------------------------------
A|--------------------------------------------------------------------------------------------------
E|--------------------------------------------------------------------------------------------------

Stave 2:

E|--------------------------------------------------
B|--------------------------------------------------
G|--2--2--2--2--2--2--4--4--4--0--0--0--2--2--2--2--
D|--0--0--0--0--0--0--0--0--0--0--0--0--0--0--0--0--
A|--------------------------------------------------
E|--------------------------------------------------

Stave 3:

E|------22------22------22------22------22------22--22--
B|--20------19------20------19------20------19------20--
G|------------------------------------------------------
D|------------------------------------------------------
A|------------------------------------------------------
E|------------------------------------------------------

Stave 4:

E|--------------------------------------------------------
B|--------------------------------------------------------
G|--------------------------------------------------------
D|-----------------------------------------------3--2--0--
A|--0--0--0--0--3--0--0--0--0--5--0--0--0--0--3-----------
E|--------------------------------------------------------

Stave 5:

E|--------------------------------------------------------------------
B|--------------------------------------------------------------------
G|--------------------------------------------------------------------
D|-----------------------------------------------3--2--0--------------
A|--0--0--0--0--3--0--0--0--0--5--0--0--0--0--3-----------3--2-----0--
E|--------------------------------------------------------------3-----

Stave 6:

E|-------------------------------
B|-------------------------------
G|-------------------------------
D|--11--14--12--11--14--12--6h7--
A|--0---0---0---0---0---0---0----
E|-------------------------------

Stave 7:

E|-----------------------0--2--
B|--------------------0--------
G|--0--0--0--0--0--0-----------
D|-----------------------------
A|--7--7--7--7--7--7-----------
E|--0--0--0--0--0--0-----------

Stave 8:

E|--------------------------------------------
B|--------------------------------------------
G|--7--7--5--------5-----7--7--5--------5-----
D|--7--7--5--5--5--5-----7--7--5-----5--5-----
A|-----------5--5-----0-----------0--5-----0--
E|--------------------------------------------

Stave 9:

E|---------------------------------------------------------------
B|---------------------------------------------------------------
G|--12-------------12-------------12-----------------------------
D|------10--9----------10--9----------10--9------------------10--
A|-------------10-------------10-------------10--10--12--10------
E|---------------------------------------------------------------

Stave 10:

E|-----5--5--5-----5--5--5-----5--5--5-----5--5--5--
B|-----6--6--6-----6--6--6-----6--6--6-----6--6--6--
G|-----5--5--5-----5--5--5-----5--5--5-----5--5--5--
D|--0-----------0-----------------------------------
A|--------------------------0-----------0-----------
E|--------------------------------------------------

Stave 11:

E|----------------------------------------------------------------------------------------
B|----------------------------------------------------------------------------------------
G|----------------------------------------------------------------------------------------
D|--7--------7--------7--------7---------------3--------3--------3--------3---------------
A|--5--5--5--5--5--5--5--5--5--5--5--5--5p4p3--1--1--1--1--1--1--1--1--1--1--1--1--3h4h5--
E|----------------------------------------------------------------------------------------

http://www.guitartabcreator.com
Guitar Tab Creator is intended to store guitar tab created through the tool. It currently does not support in-line text editing. Any text you place in here will be lost. If you need to comment on your tab, please use the "Tab Notes" section located below.