Sound will begin in 5 seconds

Paranoid Solo

01234567891011121314151617181920212223
E
B
G
D
A
E
B
0 1 2 3 4 5 6 7 8 9 10 11 12 13 14 15 16 17 18 19 20 21 22 23
Song Science #1: How Pros Use 6 Chords to Write Hit Songs
(/) Slide Up  (\) Slide Down  (h) Hammer On  (p) Pull Off  (b) Bend (r) Release (v) Vibrato

Stave 1:

E|-----------------------------------------------------------
B|-----------------------------------------------------------
G|--9b12--9--7-----9--7--9--7--------------------------------
D|-----------------------------7--5--7--5--7--------5--------
A|--------------------------------------------5--7-----7--7--
E|-----------------------------------------------------------

Stave 2:

E|----------------------------------------------------------------------
B|-------------------8--10b12--8--10b12--8--10b11--8--------------------
G|-------------7--9-----------------------------------9--9-----7--9--9--
D|--5--7--7/9-----------------------------------------------------------
A|----------------------------------------------------------------------
E|----------------------------------------------------------------------

Stave 3:

E|----------------------------------------------------15b17--15b17--15b17--15--12--
B|--------12--15b17--15--15b17--15b17--15b17--15--12-------------------------------
G|--9/14---------------------------------------------------------------------------
D|---------------------------------------------------------------------------------
A|---------------------------------------------------------------------------------
E|---------------------------------------------------------------------------------

Stave 4:

E|--15p12------15p12------------------------12----------------------------------------
B|---------15---------15--15p12---------12------15p12---------------------------------
G|-------------------------------14b15-----------------14--12------12--14b16--14--12--
D|-------------------------------------------------------------14---------------------
A|------------------------------------------------------------------------------------
E|------------------------------------------------------------------------------------

Stave 5:

E|-----------------------------------------------------------------------
B|-----------------------------------------------------------------------
G|--14b16--12h14p12------12----------------------------------------------
D|-------------------14------14--14p12------12---------------------------
A|--------------------------------------14------14\12--10--12p10---------
E|----------------------------------------------------------------12-----

Stave 6:

E|---------------------------------------------------
B|---------------------------------------------------
G|------------------------12-------------------------
D|---------12-----12--14------14--12-----14--12--14--
A|--12/14--------------------------------------------
E|---------------------------------------------------

http://www.guitartabcreator.com
Guitar Tab Creator is intended to store guitar tab created through the tool. It currently does not support in-line text editing. Any text you place in here will be lost. If you need to comment on your tab, please use the "Tab Notes" section located below.