Sound will begin in 5 seconds

INTERVALOS 2 - CONTRABAIXO

01234567891011121314151617181920212223
E
B
G
D
A
E
B
0 1 2 3 4 5 6 7 8 9 10 11 12 13 14 15 16 17 18 19 20 21 22 23
Song Science #1: How Pros Use 6 Chords to Write Hit Songs
(/) Slide Up  (\) Slide Down  (h) Hammer On  (p) Pull Off  (b) Bend (r) Release (v) Vibrato

Stave 1:

G|-----------------------------------------
D|-----------------------2-----4--2--5--4--
A|-----2-----3--2--5--3-----5--------------
E|--3-----5--------------------------------

Stave 2:

G|-----------------------------------------
D|--4--5--2--4-----2-----------------------
A|--------------5-----3--5--2--3-----2-----
E|--------------------------------5-----3--

Stave 3:

G|----------------------------------------------------
D|-----------------------4-----5-----7-----9------10--
A|-----3-----5-----7--3-----5-----7-----9-----10------
E|--3-----5-----7-------------------------------------

Stave 4:

G|-----------------------------------------------------
D|-----------------------5-----7-----9-----11------12--
A|-----5-----7-----9--3-----5-----7-----9------10------
E|--3-----5-----7--------------------------------------

Stave 5:

G|-----------------------2-----4-----5-----7------9--
D|-----2-----4-----5---------------------------------
A|--------------------3-----5-----7-----9-----10-----
E|--3-----5-----7------------------------------------

Stave 6:

G|-----------------------4-----5-----7-----9------11--
D|-----4-----5-----7----------------------------------
A|--------------------3-----5-----7-----9-----10------
E|--3-----5-----7-------------------------------------

Stave 7:

G|-----------------------5-----7-----9-----11------12--
D|-----5-----7-----9-----------------------------------
A|--------------------3-----5-----7-----9------10------
E|--3-----5-----7--------------------------------------

http://www.guitartabcreator.com
Guitar Tab Creator is intended to store guitar tab created through the tool. It currently does not support in-line text editing. Any text you place in here will be lost. If you need to comment on your tab, please use the "Tab Notes" section located below.