Sound will begin in 5 seconds

Arpejos Campo Harmonico - T 3 5 7

01234567891011121314151617181920212223
E
B
G
D
A
E
B
0 1 2 3 4 5 6 7 8 9 10 11 12 13 14 15 16 17 18 19 20 21 22 23
Song Science #1: How Pros Use 6 Chords to Write Hit Songs
(/) Slide Up  (\) Slide Down  (h) Hammer On  (p) Pull Off  (b) Bend (r) Release (v) Vibrato

Stave 1:

G|-----------------------------------------------------4-----------
D|-----------5--------------------7-----------------4-----4--------
A|-----2--5-----5--2-----------7-----7--------2--5-----------5--2--
E|--3-----------------3--5--8-----------8--5-----------------------

Stave 2:

G|-----------5--------------------7---------------------9------------
D|-----2--5-----5--2--------4--7-----7--4------------9-----9---------
A|--3-----------------3--5-----------------5--7--10-----------10--7--
E|-------------------------------------------------------------------

Stave 3:

G|-------------11-------------
D|---------10------10---------
A|--9--12--------------12--9--
E|----------------------------

Stave 4:

G|--
D|--
A|--
E|--

http://www.guitartabcreator.com
Guitar Tab Creator is intended to store guitar tab created through the tool. It currently does not support in-line text editing. Any text you place in here will be lost. If you need to comment on your tab, please use the "Tab Notes" section located below.