Sound will begin in 5 seconds

layla intro solo tab

01234567891011121314151617181920212223
E
B
G
D
A
E
B
0 1 2 3 4 5 6 7 8 9 10 11 12 13 14 15 16 17 18 19 20 21 22 23
Song Science #1: How Pros Use 6 Chords to Write Hit Songs
(/) Slide Up  (\) Slide Down  (h) Hammer On  (p) Pull Off  (b) Bend (r) Release (v) Vibrato

Stave 1:

E|--------------------------------------8-------10-12-10-12-10----10-------------------------------
B|-----5-6-5-6-5---5-6-5---5-6-8-6-8-10---10-13----------------13----13-10----10-------------------
G|---7-----------7-------7-------------------------------------------------12----12-12-10-9-10-9-7-
D|-7-----------------------------------------------------------------------------------------------
A|-------------------------------------------------------------------------------------------------
E|-------------------------------------------------------------------------------------------------

Stave 2:

E|-------------------------------------
B|-----5-6-5---------------------------
G|---7-------7-5-7---------------------
D|-7---------------7-5-3---3-5-3-0-----
A|-----------------------5---------0-3-
E|-------------------------------------

Stave 3:

E|-5---5---5---5-----5-------------------------------------------------------------------------------
B|---6---6---6---6-----6-----------------------13----13----13----13----13----13-------13-15----------
G|-----------------7-----7-7-5--------------------14----14----14----14----14----14-14-------14-12-10-
D|-----------------------------7-6-5-3-5-3---3-------------------------------------------------------
A|-----------------------------------------5---------------------------------------------------------
E|---------------------------------------------------------------------------------------------------

Stave 4:

E|-------------------10-12-10-12-10----10--------------------------------------------------------------
B|-------------10-13----------------13----13-10-10-10-10-11-10---------------------5-6-5-6-5-----------
G|----10-10-12-------------------------------------------------12-10-9-7-9-7-5---7-----------7-5-------
D|-12--------------------------------------------------------------------------7-----------------7-6-5-
A|-----------------------------------------------------------------------------------------------------
E|-----------------------------------------------------------------------------------------------------

Stave 5:

E|---------13-10----10-12-10-12-10-------------10----13-10----15-15-15-13-------12-13-15-13-15-12-13-
B|---------------13----------------13-10----10----10-------13----------------15----------------------
G|---------------------------------------13-------------------------------14-------------------------
D|-3-5-3---------------------------------------------------------------------------------------------
A|-------5-------------------------------------------------------------------------------------------
E|---------------------------------------------------------------------------------------------------

Stave 6:

E|---------------------------------------------------------------------------------
B|-15-13-------13----10----------------10---10---10---10---------------------------
G|-------12-10----12----14-12-10----10----9----9----9----9-10----5-----------------
D|-------------------------------12---------------------------12---7-6-5-5-3-5-3---
A|-------------------------------------------------------------------------------5-
E|---------------------------------------------------------------------------------

http://www.guitartabcreator.com
Guitar Tab Creator is intended to store guitar tab created through the tool. It currently does not support in-line text editing. Any text you place in here will be lost. If you need to comment on your tab, please use the "Tab Notes" section located below.