O Come All Ye Faithful - Hillsong Worship

Chords

01234567891011121314151617181920212223
E
B
G
D
A
E
B
0 1 2 3 4 5 6 7 8 9 10 11 12 13 14 15 16 17 18 19 20 21 22 23
(/) Slide Up  (\) Slide Down  (h) Hammer On  (p) Pull Off  (b) Bend (r) Release (v) Vibrato

intro:

E|-------------------------------0-------------------
B|-----1-----1-----1-----1-----1---1---------1-------
G|---0-----0-----0-----0-----0-------0---0-------0---
D|-------0-----2-----------3-----------3---3---3-----
A|-3-----------------3-------------------------------
E|---------------------------------------------------

E|-------------------------------0-------------------
B|-----1-----1-----1-----1-----1---1---------1-------
G|---0-----0-----0-----0-----0-------0---0-------0---
D|-------0-----2-----------3-----------3---3---3-----
A|-3-----------------3-------------------------------
E|---------------------------------------------------

verse 1:

E|-------------------------------0-------------------
B|-----1-----1-----1-----1-----1---1---------1-------
G|---0-----0-----0-----0-----0-------0---0-------0---
D|-------0-----2-----------3-----------3---3---3-----
A|-3-----------------3-------------------------------
E|---------------------------------------------------

E|-------------------------------0-------------------
B|-----1-----1-----1-----1-----1---1---------1-------
G|---0-----0-----0-----0-----0-------0---0-------0---
D|-------0-----2-----------3-----------3---3---3-----
A|-3-----------------3-------------------------------
E|---------------------------------------------------

E|-------3-----------3-----------3-----------3-----------3-----------3-----------3-----------3-----
B|-5-------5---5-------5---0-------0---0-------0---0-------0---0-------0---0-------0---0-------0---
G|---5-------5---5-------5---5-------5---5-------5---5-------5---5-------5---5-------5---5-------5-
D|-----5-----------5-----------5-----------5-----------5-----------5-----------5-----------5-------
A|-0-----------0-----------------------------------------------------------------------------------
E|-------------------------3-----------3-----------3-----------3-----------3-----------3-----------

E|-------------------------------0-------------------
B|-----1-----1-----1-----1-----1---1---------1-------
G|---0-----0-----0-----0-----0-------0---0-------0---
D|-------0-----2-----------3-----------3---3---3-----
A|-3-----------------3-------------------------------
E|---------------------------------------------------

E|-------------------------------0-------------------
B|-----1-----1-----1-----1-----1---1---------1-------
G|---0-----0-----0-----0-----0-------0---0-------0---
D|-------0-----2-----------3-----------3---3---3-----
A|-3-----------------3-------------------------------
E|---------------------------------------------------

pre-chorus 1:

E|-------------------------------1-----------------
B|-----1-----1-----1-----1-----1---1---------1-----
G|---0-----0-----0-----0-----2-------2---2-------2-
D|-------0-----2-----------0-----------0---0---0---
A|-3-----------------3-----------------------------
E|-------------------------------------------------

E|-------------------------------0-----------------
B|-----1-----1-----1-----1-----1---1---------1-----
G|---0-----0-----0-----0-----0-------0---0-------0-
D|-------0-----2-----------3-----------------------
A|-3-----------------3-----------------------------
E|-------------------------------------3---3---3---

E|-------------------------------0-----------------
B|-----1-----1-----1-----1-----1---1---------1-----
G|---0-----0-----0-----0-----0-------0---0-------0-
D|-------2-----------------------------------------
A|-0-----------------2-----------------------------
E|-------------3-----------1-----------1---1---1---

E|-------------------------
B|-------0-----------0-----
G|-----0---0-------0---0---
D|---0-------0---0-------0-
A|-------------------------
E|-3-----------3-----------

instrumental:

E|-------------------------------0-------------------
B|-----1-----1-----1-----1-----1---1---------1-------
G|---0-----0-----0-----0-----0-------0---0-------0---
D|-------0-----2-----------3-----------3---3---3-----
A|-3-----------------3-------------------------------
E|---------------------------------------------------

E|-------------------------------0-------------------
B|-----1-----1-----1-----1-----1---1---------1-------
G|---0-----0-----0-----0-----0-------0---0-------0---
D|-------0-----2-----------3-----------3---3---3-----
A|-3-----------------3-------------------------------
E|---------------------------------------------------

verse 2

E|-------------------------------0-------------------
B|-----1-----1-----1-----1-----1---1---------1-------
G|---0-----0-----0-----0-----0-------0---0-------0---
D|-------0-----2-----------3-----------3---3---3-----
A|-3-----------------3-------------------------------
E|---------------------------------------------------

E|---------------------------------------
B|-----1-----1-----1-----1-----1-----1p0-
G|---0-----0-----0-----0-----0-----0-----
D|-------0-----2-------------------------
A|-3-----------------3-------------------
E|-------------------------3-----3-------

E|-------3-----------3-----------3-----------3-----------3-----------3-----------3-----------3-----
B|-5-------5---5-------5---0-------0---0-------0---0-------0---0-------0---0-------0---0-------0---
G|---5-------5---5-------5---5-------5---5-------5---5-------5---5-------5---5-------5---5-------5-
D|-----5-----------5-----------5-----------5-----------5-----------5-----------5-----------5-------
A|-0-----------0-----------------------------------------------------------------------------------
E|-------------------------3-----------3-----------3-----------3-----------3-----------3-----------

E|-------------------------------0-------------------
B|-----1-----1-----1-----1-----1---1---------1-------
G|---0-----0-----0-----0-----0-------0---0-------0---
D|-------0-----2-----------3-----------3---3---3-----
A|-3-----------------3-------------------------------
E|---------------------------------------------------

E|-------------------------------0-----------------
B|-----1-----1-----1-----1-----1---1---------1-----
G|---0-----0-----0-----0-----0-------0---0-------0-
D|-------0-----2-----------3-----------------------
A|-3-----------------3-----------------------------
E|-------------------------------------3---3---3---

pre-chorus 2:

E|-------------------------------1-----------------
B|-----1-----1-----1-----1-----1---1---------1-----
G|---0-----0-----0-----0-----2-------2---2-------2-
D|-------0-----2-----------0-----------0---0---0---
A|-3-----------------3-----------------------------
E|-------------------------------------------------

E|-------------------------------0-----------------
B|-----1-----1-----1-----1-----1---1---------1-----
G|---0-----0-----0-----0-----0-------0---0-------0-
D|-------0-----2-----------3-----------------------
A|-3-----------------3-----------------------------
E|-------------------------------------3---3---3---

E|-------------------------------0-----------------
B|-----1-----1-----1-----1-----1---1---------1-----
G|---0-----0-----0-----0-----0-------0---0-------0-
D|-------2-----------2-----------------------------
A|-0-----------0-----------------------------------
E|-------------------------1-----------1---1---1---

E|-------------------------
B|-------1-----------0-----
G|-----0---0-------0---0---
D|---2-------2---0-------0-
A|-3-----------------------
E|-------------3-----------

chorus:

E|-------------------------------0-------------------
B|-----1-----1-----1-----1-----1---1---------1-------
G|---0-----0-----0-----0-----0-------0---0-------0---
D|-------0-----2-----------3-----------3---3---3-----
A|-3-----------------3-------------------------------
E|---------------------------------------------------

E|-------------------------------0-------------------
B|-----1-----1-----1-----1-----1---1---------1-------
G|---0-----0-----0-----0-----0-------0---0-------0---
D|-------0-----2-----------3-----------3---3---3-----
A|-3-----------------3-------------------------------
E|---------------------------------------------------

E|-------------------------------0-------------------
B|-----1-----1-----1-----1-----1---1---------1-------
G|---0-----0-----0-----0-----0-------0---0-------0---
D|-------0-----2-----------3-----------3---3---3-----
A|-3-----------------3-------------------------------
E|---------------------------------------------------

E|-------------------------------------------------
B|-------1-----------1-----------1-----------0-----
G|-----0---0-------2---2-------0---0-------0---0---
D|---2-------2---3-------3---2-------2---0-------0-
A|-0-----------------------3-----------------------
E|-------------1-----------------------3-----------

verse 3:

E|-------------------------------0-------------------
B|-----1-----1-----1-----1-----1---1---------1-------
G|---0-----0-----0-----0-----0-------0---0-------0---
D|-------0-----2-----------3-----------3---3---3-----
A|-3-----------------3-------------------------------
E|---------------------------------------------------

E|-------------------------------0-----------------
B|-----1-----1-----1-----1-----1---1---------1-----
G|---0-----0-----0-----0-----0-------0---0-------0-
D|-------0-----2-----------3-----------------------
A|-3-----------------3-----------------------------
E|-------------------------------------3---3---3---

E|-------3-----------3-----------3-----------3-----------3-----------3-----------3-----------3-----
B|-5-------5---5-------5---0-------0---0-------0---0-------0---0-------0---0-------0---0-------0---
G|---5-------5---5-------5---5-------5---5-------5---5-------5---5-------5---5-------5---5-------5-
D|-----5-----------5-----------5-----------5-----------5-----------5-----------5-----------5-------
A|-0-----------0-----------------------------------------------------------------------------------
E|-------------------------3-----------3-----------3-----------3-----------3-----------3-----------

E|-------------------------------0-------------------
B|-----1-----1-----1-----1-----1---1---------1-------
G|---0-----0-----0-----0-----0-------0---0-------0---
D|-------0-----2-----------3-----------3---3---3-----
A|-3-----------------3-------------------------------
E|---------------------------------------------------

E|-------------------------------0-----------------
B|-----1-----1-----1-----1-----1---1---------1-----
G|---0-----0-----0-----0-----0-------0---0-------0-
D|-------2-----------0-----------------------------
A|-0-----------3-----------------------------------
E|-------------------------3-----------3---3---3---

pre-chorus 3:

E|-------------------------------1-----------------
B|-----1-----1-----1-----1-----1---1---------1-----
G|---0-----0-----0-----0-----2-------2---2-------2-
D|-------0-----2-----------0-----------0---0---0---
A|-3-----------------3-----------------------------
E|-------------------------------------------------

E|-------------------------------0-----------------
B|-----1-----1-----1-----1-----1---1---------1-----
G|---0-----0-----0-----0-----0-------0---0-------0-
D|-------0-----2-----------3-----------------------
A|-3-----------------3-----------------------------
E|-------------------------------------3---3---3---

E|-------------------------------0-----------------
B|-----1-----1-----1-----1-----1---1---------1-----
G|---0-----0-----0-----0-----0-------0---0-------0-
D|-------2-----------2-----------------------------
A|-0-----------0-----------------------------------
E|-------------------------1-----------1---1---1---

E|-------------------------
B|-------1-----------0-----
G|-----0---0-------0---0---
D|---2-------2---0-------0-
A|-3-----------------------
E|-------------3-----------

chorus:

E|-------------------------------0-------------------
B|-----1-----1-----1-----1-----1---1---------1-------
G|---0-----0-----0-----0-----0-------0---0-------0---
D|-------0-----2-----------3-----------3---3---3-----
A|-3-----------------3-------------------------------
E|---------------------------------------------------

E|-------------------------------0-------------------
B|-----1-----1-----1-----1-----1---1---------1-------
G|---0-----0-----0-----0-----0-------0---0-------0---
D|-------0-----2-----------3-----------3---3---3-----
A|-3-----------------3-------------------------------
E|---------------------------------------------------

E|-------------------------------0-------------------
B|-----1-----1-----1-----1-----1---1---------1-------
G|---0-----0-----0-----0-----0-------0---0-------0---
D|-------0-----2-----------3-----------3---3---3-----
A|-3-----------------3-------------------------------
E|---------------------------------------------------

E|-------------------------------------------------
B|-------1-----------1-----------1-----------0-----
G|-----0---0-------2---2-------0---0-------0---0---
D|---2-------2---3-------3---2-------2---0-------0-
A|-0-----------------------3-----------------------
E|-------------1-----------------------3-----------

post-chorus:

E|-------------------------------0-------------------
B|-----1-----1-----1-----1-----1---1---------1-------
G|---0-----0-----0-----0-----0-------0---0-------0---
D|-------0-----2-----------3-----------3---3---3-----
A|-3-----------------3-------------------------------
E|---------------------------------------------------

E|-------------------------------0-------------------
B|-----1-----1-----1-----1-----1---1---------1-------
G|---0-----0-----0-----0-----0-------0---0-------0---
D|-------0-----2-----------3-----------3---3---3-----
A|-3-----------------3-------------------------------
E|---------------------------------------------------

E|-------------------------------0-----------------
B|-----1-----1-----1-----1-----1---1---------1-----
G|---0-----0-----0-----0-----0-------0---0-------0-
D|-------2-----------2-----------------------------
A|-0-----------0-----------------------------------
E|-------------------------1-----------1---1---1---

E|-------------------------------0-----------------
B|-----1-----1-----1-----1-----1---1---------1-----
G|---0-----0-----0-----0-----0-------0---0-------0-
D|-------0-----2-----------3-----------------------
A|-3-----------------3-----------------------------
E|-------------------------------------3---3---3---

E|-------------------------------0-------------------
B|-----1-----1-----1-----1-----1---1---------1-------
G|---0-----0-----0-----0-----0-------0---0-------0---
D|-------0-----2-----------3-----------3---3---3-----
A|-3-----------------3-------------------------------
E|---------------------------------------------------

E|-------------------------------0-------------------
B|-----1-----1-----1-----1-----1---1---------1-------
G|---0-----0-----0-----0-----0-------0---0-------0---
D|-------0-----2-----------3-----------3---3---3-----
A|-3-----------------3-------------------------------
E|---------------------------------------------------

E|-------------------------------0-----------------
B|-----1-----1-----1-----1-----1---1---------1-----
G|---0-----0-----0-----0-----0-------0---0-------0-
D|-------2-----------2-----------------------------
A|-0-----------0-----------------------------------
E|-------------------------1-----------1---1---1---

E|-------------------------------0-----------------
B|-----1-----1-----1-----1-----1---1---------1-----
G|---0-----0-----0-----0-----0-------0---0-------0-
D|-------0-----2-----------3-----------------------
A|-3-----------------3-----------------------------
E|-------------------------------------3---3---3---

chorus:

E|-------------------------------0-------------------
B|-----1-----1-----1-----1-----1---1---------1-------
G|---0-----0-----0-----0-----0-------0---0-------0---
D|-------0-----2-----------3-----------3---3---3-----
A|-3-----------------3-------------------------------
E|---------------------------------------------------

E|-------------------------------0-------------------
B|-----1-----1-----1-----1-----1---1---------1-------
G|---0-----0-----0-----0-----0-------0---0-------0---
D|-------0-----2-----------3-----------3---3---3-----
A|-3-----------------3-------------------------------
E|---------------------------------------------------

E|-------------------------------0-------------------
B|-----1-----1-----1-----1-----1---1---------1-------
G|---0-----0-----0-----0-----0-------0---0-------0---
D|-------0-----2-----------3-----------3---3---3-----
A|-3-----------------3-------------------------------
E|---------------------------------------------------

E|-------------------------------------------------
B|-------1-----------1-----------1-----------0-----
G|-----0---0-------2---2-------0---0-------0---0---
D|---2-------2---3-------3---2-------2---0-------0-
A|-0-----------------------3-----------------------
E|-------------1-----------------------3-----------



							http://www.guitartabcreator.com
Instruments
{"strings":[[[],[],[],[],[],[]]],"numberofstrings":6,"notes":["E","B","G","D","A","E","B"],"capo":0,"stringnotes":["E4","B3","G3","D3","A2","E2"],"comments":["Stave 1:"],"timing":[[]],"timingvisible":false,"tabcounter":0,"stave":0,"totalstaves":1,"instrument":"6guitar","selectedtuning":"6_standard","version":"13"}

Member for

1 week 4 days
About Me
Guy born 2004. Been playing guitar since 2017.
Submitted by gunnargard on Thu, 2020-11-19 12:43