Sound will begin in 5 seconds

Erik Satie - Vexations

Chords
01234567891011121314151617181920212223
E
B
G
D
A
E
B
0 1 2 3 4 5 6 7 8 9 10 11 12 13 14 15 16 17 18 19 20 21 22 23
Song Science #1: How Pros Use 6 Chords to Write Hit Songs
(/) Slide Up  (\) Slide Down  (h) Hammer On  (p) Pull Off  (b) Bend (r) Release (v) Vibrato

Stave 1:

E|----------------------------------------------------------------------------------------------
B|----------------------------------------------------------------------------------------------
G|----------------------------------------------------------------------------------------------
D|------------------------1---------0---------1-----------------------------1---------2----2----
A|----3----0----4----1-------------------3--------------4---------2--------------2--------------
E|-----------------------------3-------------------2---------1---------2------------------------

Stave 2:

E|---------------------------------------------------------------------------------------------------
B|--------4----6----5----8----7----5----6----10----7----4----5----4----3----4----7----9----8----8----
G|--------2----6----3----6----5----3----4----8-----5----2----3----2----1----2----5----7----6----6----
D|---------------------------------------------------------------------------------------------------
A|--------3---------4---------6---------5----------6---------4---------2---------6---------7----7----
E|-------------5---------6---------3---------8----------2---------1---------2---------7--------------

Stave 3:

E|--------------------------------------------------------------------------------------------------
B|--------------------------------------------------------------------------------------------------
G|--------------------------------------------------------------------------------------------------
D|----------------------------1---------0---------1-----------------------------1---------2----2----
A|--------3----0----4----1-------------------3--------------4---------2--------------2--------------
E|---------------------------------3-------------------2---------1---------2------------------------

Stave 4:

E|----------------------------------------------------------------------------------------------
B|----------------------------------------------------------------------------------------------
G|----2----6----3----6----5----3----4----8----5----2----3----2----1----2----5----7----6----6----
D|----1----3----2----5----4----2----3----7----4----1----2----1----0----1----4----6----5----5----
A|----3---------4---------6---------5---------6---------4---------2---------6---------7----7----
E|---------5---------6---------3---------8---------2---------1---------2---------7--------------

http://www.guitartabcreator.com
Guitar Tab Creator is intended to store guitar tab created through the tool. It currently does not support in-line text editing. Any text you place in here will be lost. If you need to comment on your tab, please use the "Tab Notes" section located below.