Sound will begin in 5 seconds

Waltz for Bill Evans (G tuning)

01234567891011121314151617181920212223
E
B
G
D
A
E
B
0 1 2 3 4 5 6 7 8 9 10 11 12 13 14 15 16 17 18 19 20 21 22 23
Song Science #1: How Pros Use 6 Chords to Write Hit Songs
(/) Slide Up  (\) Slide Down  (h) Hammer On  (p) Pull Off  (b) Bend (r) Release (v) Vibrato

Stave 1:

E|--16--14--12------9--7-----9-----------7--------2----------13--15------15--13--10--8--8--7--7--5--
B|--14----------12--7-----7--7-----------------4-----15--12----------12----------8------7--6--------
G|--14----------9---7-----7--7-----------------3-----13--------------12----------8------6--5--------
D|--15----------10--9-----6--9-----------------5-----13--------------12----------8------6--5--------
A|--------------9---9--------------------------2-----13--------------12-----------------------------
E|------------------------------6--6--0-----0-------------------------------------------------------

Stave 2:

E|--3--5-----5--3--------2--
B|--4-----5-----5--------4--
G|--3-----------5--------5--
D|--------------2--------2--
A|-----------------2--2-----
E|--------------------------

http://www.guitartabcreator.com
Guitar Tab Creator is intended to store guitar tab created through the tool. It currently does not support in-line text editing. Any text you place in here will be lost. If you need to comment on your tab, please use the "Tab Notes" section located below.