Sound will begin in 5 seconds

Waltz For Bill Evans (drop D tuning)

01234567891011121314151617181920212223
E
B
G
D
A
E
B
0 1 2 3 4 5 6 7 8 9 10 11 12 13 14 15 16 17 18 19 20 21 22 23
Song Science #1: How Pros Use 6 Chords to Write Hit Songs
(/) Slide Up  (\) Slide Down  (h) Hammer On  (p) Pull Off  (b) Bend (r) Release (v) Vibrato

Stave 1:

E|--14--12--10------7--5-----7--------5--------0----------11--13------13--11--8--6--6--5--5--3--1--3-----
B|--12----------10--5-----5--5--------------2-----13--10----------12----------6-----5--4--------2-----3--
G|--12----------7---5-----5--5--------------1-----11--------------12----------6-----4--3--------1--------
D|--12----------8---7-----4--7--------------3-----11--------------12----------6-----4--3-----------------
A|--------------7---7-----------------------0-----11--------------12-------------------------------------
E|------------------------------6--6-----0---------------------------------------------------------------

Stave 2:

E|--3--1--------0--
B|-----3--------2--
G|-----3--------3--
D|-----0--------0--
A|--------0--0-----
E|-----------------

http://www.guitartabcreator.com
Guitar Tab Creator is intended to store guitar tab created through the tool. It currently does not support in-line text editing. Any text you place in here will be lost. If you need to comment on your tab, please use the "Tab Notes" section located below.