Sound will begin in 5 seconds

Waltz for Bill Evans 2

01234567891011121314151617181920212223
E
B
G
D
A
E
B
0 1 2 3 4 5 6 7 8 9 10 11 12 13 14 15 16 17 18 19 20 21 22 23
Song Science #1: How Pros Use 6 Chords to Write Hit Songs
(/) Slide Up  (\) Slide Down  (h) Hammer On  (p) Pull Off  (b) Bend (r) Release (v) Vibrato

Stave 1:

E|--16--14--12---------10--9--7--------9--------6--------2----------12--15------14--12-----------10--
B|--14-------------13------7-----7--9--7--------------4-----15--13----------------------------8------
G|--14-------------9-------7-----7-----7--------------3-----13--------------12-------------8---------
D|--15-------------10------7-----6-----7--------------5-----13--------------12----------8------------
A|--------------9--9-------9-----------9--------------0-----13--------------12-----------------------
E|----------------------------------------6--6-----0------------------------12-----------------------

Stave 2:

E|--10--8--8--7--5--4--5--3--------2--2--3--5--0--2--3--5--7--7-----2--3--5--0--
B|--8------7--6-----4-----3--------4--3--3--3--0--3--3--3--7--7-----3--3--3--0--
G|--8------6--5-----4-----3--------2-----0--0--1--0--0--0--8--9--8--0--0--0--2--
D|--8------6--5-----3-----2--------4-----0--0--0--0--0--0--7--7--7--0--0--0--0--
A|---------0--0-----4-----3--2--2--2--2--2--2--4--2--2--2--9--7--7--2--2--2--4--
E|------------0-----------------------0--0--0--0--0--0--0--7--7--7--0--0--0--0--

Stave 3:

E|--2--3--5--7--
B|--3--3--3--7--
G|--0--0--0--8--
D|--0--0--0--7--
A|--2--2--2--9--
E|--0--0--0--7--

http://www.guitartabcreator.com
Guitar Tab Creator is intended to store guitar tab created through the tool. It currently does not support in-line text editing. Any text you place in here will be lost. If you need to comment on your tab, please use the "Tab Notes" section located below.