Sound will begin in 5 seconds

timpanos dolor con dolor

Chords
01234567891011121314151617181920212223
E
B
G
D
A
E
B
0 1 2 3 4 5 6 7 8 9 10 11 12 13 14 15 16 17 18 19 20 21 22 23
(/) Slide Up  (\) Slide Down  (h) Hammer On  (p) Pull Off  (b) Bend (r) Release (v) Vibrato

Stave 1:

E|-----------------------------------3/5----------------
B|----------------------------------------3--3/5--5--5--
G|--------------------4--4--4--5--4---------------------
D|-----------5--5--5-----------5--5---------------------
A|--7--7--7---------------------------------------------
E|------------------------------------------------------

Stave 2:

E|--12h15--15--15p12-----------------12--15--12h15p12--
B|--------------------15--13--13h15--------------------
G|-----------------------------------------------------
D|-----------------------------------------------------
A|-----------------------------------------------------
E|-----------------------------------------------------

Stave 3:

E|--7h10--10--10p7---------------7--10--7h10p7-----3h5--5--5p3-------------3--5/7--3-----
B|------------------10--8--8h10---------------------------------5--5p3--3-------------5--
G|---------------------------------------------------------------------------------------
D|---------------------------------------------------------------------------------------
A|---------------------------------------------------------------------------------------
E|---------------------------------------------------------------------------------------

Stave 4:

E|---------------------------------------
B|--5h8--8--8p5-------------5--8--5h8p5--
G|---------------7--5--5h7---------------
D|---------------------------------------
A|---------------------------------------
E|---------------------------------------

Stave 5:

E|------------------------------------------------------------------------------------
B|------------------------------------------------------------------------------------
G|--4h7--7--7p4-------------4--7--4h7p4-----------------------------------------------
D|---------------7--5--5h7---------------5h7--7--7--5-------------5--7/9--5-----------
A|-----------------------------------------------------7--7p5--5-------------7-----7--
E|------------------------------------------------------------------------------7-----

Stave 6:

E|--------------------------8/10--8/10-------------------------------10/12--10/12--
B|--7--8--7--8--7--5-----------------------8--10--8--10--8--7----------------------
G|--------------------7----------------------------------------9-------------------
D|-----------------------7----------------------------------------9----------------
A|---------------------------------------------------------------------------------
E|---------------------------------------------------------------------------------

Stave 7:

E|---------------------------------------------------------
B|--8--10--8--10--8--7-------------------------------------
G|----------------------9-----------------7/9--9--9--9--9--
D|-------------------------9--9--9--9--9-------------------
A|---------------------------------------------------------
E|---------------------------------------------------------

Stave 8:

E|------12--15------12--15--10--------------------10--
B|--13----------13--------------12p10------10h12------
G|-------------------------------------12-------------
D|----------------------------------------------------
A|----------------------------------------------------
E|----------------------------------------------------

Stave 9:

E|------14--17------14--17--19--17--17p15----------
B|--15----------15-------------------------17--17--
G|-------------------------------------------------
D|-------------------------------------------------
A|-------------------------------------------------
E|-------------------------------------------------

Stave 10:

E|--------3--------3------------------------------5--------5--7--5-----------
B|-----5--------5-----3---------------3--------7--------7-----------8--5--5--
G|--5--------5-----------4p2-----2h4--------7--------7-----------------------
D|----------------------------5----------------------------------------------
A|---------------------------------------------------------------------------
E|---------------------------------------------------------------------------

Stave 11:

E|--------5--------5--0--0-----7--7--7-----------------
B|-----7--------7-----3--5--------------------3--4--5--
G|--7--------7--------------------------4--4-----------
D|-----------------------------------------------------
A|-----------------------------------------------------
E|-----------------------------------------------------

Stave 12:

E|--7p5---------------10p7-----7h10p7-----12p9------9h10p9--
B|-------8--5h8p5-----------8-------------------10----------
G|----------------------------------------------------------
D|----------------------------------------------------------
A|----------------------------------------------------------
E|----------------------------------------------------------

Stave 13:

E|--------10p8----------------7h8p7-----------7-----7------7-----7-----
B|-----8--------8--------------------8-----------8-----10-----8--------
G|--9--------------9-----7/9------------9---------------------------9--
D|---------------------------------------------------------------------
A|---------------------------------------------------------------------
E|---------------------------------------------------------------------

Stave 14:

E|-------------------------12--15--12--15p12---------12--15--12h15p12--
B|--------------12--13h15---------------------13h15--------------------
G|--12--12--14---------------------------------------------------------
D|---------------------------------------------------------------------
A|---------------------------------------------------------------------
E|---------------------------------------------------------------------

Stave 15:

E|--------7--10--7--10p7--------7--10--7h10p7----------2--5--2h5p2-------2--5--2h5p2--
B|--8h10------------------8h10--------------------3h5---------------3h5---------------
G|------------------------------------------------------------------------------------
D|------------------------------------------------------------------------------------
A|------------------------------------------------------------------------------------
E|------------------------------------------------------------------------------------

Stave 16:

E|-----7--10--10/12--12p10------10h12p10--
B|--8-----------------------12------------
G|----------------------------------------
D|----------------------------------------
A|----------------------------------------
E|----------------------------------------

Stave 17:

E|-------2--5--2----------3--5/7--3-----
B|--3h5-----------5p3--3-------------5--
G|--------------------------------------
D|--------------------------------------
A|--------------------------------------
E|--------------------------------------

http://www.guitartabcreator.com
Guitar Tab Creator is intended to store guitar tab created through the tool. It currently does not support in-line text editing. Any text you place in here will be lost. If you need to comment on your tab, please use the "Tab Notes" section located below.